Song name
# A B C D E F G H I J K L M N O P Q R S T U V W X Y Z

John Ralston - Whose Heart Are You Breaking Tonight tab

----------------------------------------------------------------------------
           Whose Heart Are You Breaking Tonight - John Ralston
----------------------------------------------------------------------------
Tabbed by: adslam3
Email:

Tuning: Half Step Down (EbAbDbGbBbeb)

Intro/Verse (Fingerpick the whole song)
e|---------------------------------------------------------------------------|
B|----------1----------------------------------------------------------------|
G|------0-----0--------------------------------------------------------------|
D|-0h2----------2---2--------------------------------------------------------|
A|----3---3-------3---3------------------------------------------------------|
E|---------------------------------------------------------------------------|

Chorus (i'm not sure about this, but the chords are C, Am, and back to C)
e|-----------------------------------|--------------------|-----------------|
B|---------------------1-------1-----|---------1----------|-----------------|
G|---0-------0-----------2-------2---|-----0-----0--------|-----------------|
D|-----2-------2-----2-----2-2-----2-|0h2----------2---2--|This x2----------|
A|-3-----3-3-----3-------------------|---3---3-------3---3|-----------------|
E|-----------------------------------|--------------------|-----------------|
Repeat the chorus, but end like this
e|----------3---------------------------------------------------------------|
B|--------1---1-------------------------------------------------------------|
G|-----0--------0-----------------------------------------------------------|
D|--2-----------------------------------------------------------------------|
A|---3---3------------------------------------------------------------------|
E|--------------------------------------------------------------------------|
Then back to verse then chorus and so on.
This tab isnt perfect, but there's nothing out there and this is a start.


| /  slide up
| \  slide down
| h  hammer-on
| p  pull-off
| ~  vibrato
| +  harmonic
| x  Mute note
============================================================================
Tap to rate this tab
# A B C D E F G H I J K L M N O P Q R S T U V W X Y Z