Song name
# A B C D E F G H I J K L M N O P Q R S T U V W X Y Z

John Renbourn - Winter Is Gone tab

-------------------------------------------------------------------------------
			     Winter is gone - John Renbourn
-------------------------------------------------------------------------------
Tabbed by:Alfie

this is just the intro,i am currently working on the rest

Tuning:Capo 1st (its kind of optional but its easier with it on.not sure if you can play 
on the rest of the song. find out soon tho)

played relative to capo

e|----------------2----------------2----------------2----------------2-----|
B|-----------0h3--------------0h3--------------0h3--------------0h3--------|
G|-------4----------------4----------------4----------------4--------------|
D|-------------------------------------------------------------------------|
A|---2----------------0----------------------------------------------------|
E|-------------------------------------3----------------2------------------|

repeat 4x

i will complete the tab when i work out the rest

| /  slide up
| \  slide down
| h  hammer-on
| p  pull-off
| ~  vibrato
| +  harmonic
| x  Mute note
===============================================================================
Tap to rate this tab
# A B C D E F G H I J K L M N O P Q R S T U V W X Y Z