Guitaretab - guitar tabs
Song name
# A B C D E F G H I J K L M N O P Q R S T U V W X Y Z

John Renbourn - Lady Nothings Toye Puffe tab

Lady Nothingís Toye Puffe

I donít have the time to write in the timing (thereís a really bad pun in that), but you
watch a video of it at (http://www.youtube.com/watch?v=X8viNheVjvA ).  The fingerings
quite the same but the notes are close enough.  Thereís a bit in the video (54 seconds) 
he does an interesting  harmonic that I havenít written in, but have asterisked.  Gooch!

||Eb--32-0---------------32-0---------585-7--5-32-0--------|
||Bb----3-1------0---------3-1-----0-------53----3---03-02-|
||Gb-------4-2-0--------------42-0--------------2---0--2---|
||Db-0----------2-0--4240---------2-0-7---5-4-2---24-------|
||Ab-----0----3-------------0---3-------------------------0|
||Db-0-------------0-0--0------------0---------------------|

||--32-0---------------32-0-----------5857---5-32-0------------|
||----3-1------0---------3-1------0-------5-3----3---032-0-----|
||-------4-2-0--------------4-2-0-------------------0---2------|
||-0----------2-0--4240----------2-0--7--5--4-2---24---2-4-----|
||-----0----3-------------0----3---------------------------2s7-|
||-0-------------0-0--0-------------0--------------------------|
[ Tab from: http://www.guitaretab.com/j/john-renbourn/77726.html ]
||53--757------------8875----------------------------------32-0-------|
||--57---3-----35---------87--575575575--45--2-0-------3-----3----3-2-|
||----------42--------------7-5--4------------2--0------4-2------4----|
||--------45--4---757---------------7---4---------42-----0-----45--2--|
||---------------7-------7-------------2----0-------------------------|
||-----------------------------------------2----2---2s5---------------|

||-53--20----7-5----9-10-12-9---------7-97--5----------|
||---0---3-2----87--------------------7---7--7--53--2--|
||----2----------77-----------9-11-12-7--------4-----2-|
||--------2--------9--------7-----------------5----2---|
||----------57--------9--10----------------5-----------|
||-----------------------------------------------------|
   *
||--32-0---------------32-0-----------5857---5-32-0---------|
||----3-1------0---------3-1------0-------5-3----3---032-0--|
||-------4-2-0--------------4-2-0-------------------0---2---|
||-0----------2-0--4240----------2-0--7--5--4-2---24---2-4--|
||-----0----3-------------0----3----------------------------|
||-0-------------0-0--0-------------0-----------------------|

||---53--757------------8875-------------30---------3575-|
||-----57---3-----35---------87---575575---30-23-35------|
||-------------42----757-------7--5--4--2-------2--5---7-|
||-----------24--4--7-------7----------------2-0---------|
||2s7-----------------------------------0----------0-----|
||-----------------------------------------------------0-|

                                                        Tabbed by Bluesrunthegame
Related for Lady Nothings Toye Puffe tab