Song name
# A B C D E F G H I J K L M N O P Q R S T U V W X Y Z

John Rhino Edwards - Republican tab

Republican
Rhino Edwards
Rhino's Revenge 2002


Rock a while...


E|----------------------------------------|
B|----------------------------------------|
G|----------------------------------------|
D|----------------------------------------|
A|---2~-2~-2---4-2-2----2~-2~-2-2-4-3-2-0-|
E|-4---------4--------4-------------------|


E|----------------------------------------------------------------0-|
B|----------------------------------------------------------------0-|
G|----------------------------------------------------------------1-|
D|-------2-2-2-2----------------------------------------------------|
A|-0-2/4---------0-2-2----2-2-2-2-2-2-2-------2-2-2-2-2-2-2---------|
E|---------------------3b---------------3-2-0---------------3-2-0---|





Tap to rate this tab
 
# A B C D E F G H I J K L M N O P Q R S T U V W X Y Z