Song name
# A B C D E F G H I J K L M N O P Q R S T U V W X Y Z

John Rich - Country Done Come To Town tab

-------------------------------------------------------------------------------
			     Country Done Come to Town - John Rich
-------------------------------------------------------------------------------
Tabbed by: NCFencer
Email: NCFencer@gmail.com

Tuning: Standard

Intro
e|---------------------------------------------------------------------------|
B|---------------------------------------------------------------------------|
G|---------------------------------------------------------------------------|
D|------------------------------------------------5-5-x-7-7------------------|
A|-------3b-------------3b-------------3b---------5-5-x-7-7------------------|
E|-0-3-5----5-3-0-0-345----5-3-0-0-345----5-3-0-0 3-3-x-5-5------------------|

Verse
e|---------------------------------------------------------------------------|
B|---------------------------------------------------------------------------|
G|---------------------------------------------------------------------------|
D|---------------------------------------------------------------------------|
A|-2-2-2-2-5-5-5-5-7-7-7-7-5-5-5-5-------------------------------------------|
E|-0-0-0-0-3-3-3-3-5-5-5-5-3-3-3-3-------------------------------------------|
PM---------------------------------

Chorus
e|---------------------------------------------------------------------------|
B|---------------------------------------------------------------------------|
G|---------------------------------------------------------------------------|
D|-7---5---2---5-------------------------------------------------------------|
A|-7---5---2---5-------------------------------------------------------------|
E|-5---3---0---3-------------------------------------------------------------|
Tap to rate this tab
 
# A B C D E F G H I J K L M N O P Q R S T U V W X Y Z