Song name
# A B C D E F G H I J K L M N O P Q R S T U V W X Y Z

John Rich - Country Done Come To Town tab

                      Country Done Come To Town
                             John Rich
                  Country Done Come To Town - Single
                              Drop D
                       Tabbed By: BirdOnAWire

Intro Pt. 1
e|---------------------------------------------------------||
B|---------------------------------------------------------||
G|---------------------------------------------------------||
D|------------------------------------------------33-x-55\-||
A|------3---------------3---------------3---------33-x-55\-||
D|0-3-5--5-3-0--0-3h4h5--5-3-0--0-3h4h5--5-3-0--0-33-x-55\-||

  Pt. 2a           Pt. 2b
e|----------------|------------||
B|----------------|------------||
G|----------------|------------||
D|----------------|---33-x-55\-||
A|0-3h4h5-3-5-3-0-|-0-33-x-55\-||
D|0-3h4h5---5-3-0-|-0-33-x-55\-||
                x3

Verse 1:
  Pt. 1a      1b           Pt. 2        Pt. 3
e|-----------|------------|------------|---------||
B|-----------|------------|------------|---------||
G|-----------|------------|------------|---------||
D|0-000-3-333|-5-555-3-333|-5-5-55-3--3|-5-5-58--||
A|0-000-3-333|-5-555-3-333|-5-5-55-3--3|-5-5-58--||
D|0-000-3-333|-5-555-3-333|-5-5-55-3--3|-5-5-58--||
  * *** * ***  * *** * ***
Do Pt. 1a&b, then Pt. 1a&2, Then Pt. 1a&b, Then Pt. 1a&3


Chorus:
  Pt. 1                            Pt. 2
e|-------------------|            |--------------------------------||
B|-------------------|            |--------------------------------||
G|-------------------|            |--------------------------------||
D|0000-3333-5555-3333|Intro Pt. 2a|5555555555555555888888887-7-7-7-||
A|0000-3333-5555-3333|            |5555555555555555888888887-7-7-7-||
D|0000-3333-5555-3333|            |5555555555555555888888887-7-7-7-||

Do Pt. 1 twice then, Pt. 2, then Pt. 1


Verse 2:
  Pt. 1a      1b           2             3
e|-----------|------------|-------------|---------||
B|-----------|------------|-------------|---------||
G|-----------|------------|-------------|---------||
D|0-000-3-333|-5-555-3-333|-5-5-55-3-1-0|-5-5-58--||
A|0-000-3-333|-5-555-3-333|-5-5-55-3-1-0|-5-5-58--||
D|0-000-3-333|-5-555-3-333|-5-5-55-3-1-0|-5-5-58--||
  * *** * ***  * *** * ***
Do Pt. 1a&b twice, then pt. 1a&2, then pt. 1a&3


Solo:
e|-----------------------------------------------------|------|----------||
B|--3--3--3--3--------------------3--3--3--3--6-3------|8b-6-6|8b-6------||
G|5b-5b-5b-5b--5b-5b-5br3-5b---5b-5b-5b-5b------5p3-5b|----7-|----7-5-7-||
D|-----------------------------------------------------|------|----------||
A|-----------------------------------------------------|------|----------||
D|-----------------------------------------------------|------|----------||
                                                            x2
Do Intro Pt. 2a then after "Hell Yeah" go to the Chorus but only do the Intro Pt. 2a 
then when you move into Chorus Pt. 2 do the transition.

Transition:
e|----------||
B|----------||
G|----------||
D|3-3-2h3/5-||
A|3-3-2h3/5-||
D|3-3-2h3/5-||

Do chorus part 2 then Chorus part 1 then intro part 2a til end.

ENJOY!

Key:
h = hammeron
x = mute note
\ = slide down
* = palm mute
b = bend

Notes:
I'm not officially sure if the solo is 100% correct so if you gotta better version. post 
or send it to me as a correction and recieve full credit in the update! thanks!
Tap to rate this tab
 
# A B C D E F G H I J K L M N O P Q R S T U V W X Y Z