Song name
# A B C D E F G H I J K L M N O P Q R S T U V W X Y Z

John Rush - Another One Taken Tonight tab

Tuning:

e|-------------------------------7---7---7---7-10^-10p7---------------------|
B|--------------------7-------10^-10^-10^-10^-----------10p7-10p7-----------|
G|----7-7-6--------7h9--/11-9-------------------------------------9--7-7----|
D|-9------------7h9---------------------------------------------------------|
A|-----------7h9------------------------------------------------------------|
E|--------------------------------------------------------------------------|
after the last 7 go directly into the 7/9h11 w/o stopping. (there is no gap)

e|-------------10-9---------------------------------------------------------|
B|-------10h12--------------------------------------------------------------|
G|7/9h11--------------------------------------------------------------------|
D|--------------------------------------------------------------------------|
A|--------------------------------------------------------------------------|
E|--------------------------------------------------------------------------|

I'll tab the rest of the solo later.

Tap to rate this tab
# A B C D E F G H I J K L M N O P Q R S T U V W X Y Z