Song name
# A B C D E F G H I J K L M N O P Q R S T U V W X Y Z

John Scofield - Snap Crackle Pop tab

Snap, Crackle, Pop
Artist: John Scofield
Album: Uberjam





|-----------------------------------------------------------------------------------|
|---------------------------10-12-10---------------------------------12-------------|
|-----9-11------------11-13----------13-11-----11--13^11-11---11-14------13---------|
|-12-------12-----9------------------------14--------------------------------12-----|
|-------------12--------------------------------------------------------------------|
|-----------------------------------------------------------------------------------|



|-------------------------------------------------------|
|-------------------------------------------------------|
|-9-11-9--------------9-11-9----9-11-9------------------|
|--------12-9-12--9----------12--------12-9-12--9-------|
|-------------------------------------------------------|
|-------------------------------------------------------|


Listen to the song for exact timing, I tried to write out the time as well as I could.
Great tune.
Tap to rate this tab
# A B C D E F G H I J K L M N O P Q R S T U V W X Y Z