Song name
# A B C D E F G H I J K L M N O P Q R S T U V W X Y Z

John Scofield - Deadzy tab

-------------------------------------------------------------------------------
			     Deadzy - John Scofield
-------------------------------------------------------------------------------
Tabbed by: mjy2821
Email: yash3434@gmail.com

e|---------------------------------------------------------------------------|
B|-------------------------------9-11----9-11----10-10-10----10--------------|
G|--9--7-----9-10-8----7-8-10-11------11------11----------10-------8--(head)-|
D|-------10----------5-------------------------------------------------------|
A|---------------------------------------------------------------------------|
E|---------------------------------------------------------------------------|

e|-----------------------------------------------------------------------------|
B|--11-10-8/7--7-8-10/14-------------------------------------------------------|
G|-----------------------------------------------------------------------------|
D|-----------------------------------------------------------------------------|
A|-----------------------------------------------------------------------------|
E|-----------------------------------------------------------------------------|

e|------------11--------------------------------------------------------------------|
B|------10------------10-8----------------------------------------------------------|
G|----------------------------------------------------------------------------------|
D|----8-----------------------------------------------------------------------------|
A|---------10-----------------------------------------------------------------------|
E|--8--------------8----------------------------------------------------------------|
Tap to rate this tab
# A B C D E F G H I J K L M N O P Q R S T U V W X Y Z