Song name
# A B C D E F G H I J K L M N O P Q R S T U V W X Y Z

John Smith - There Is A Stone tab

-----------------------------------------------------------------------------
                             THERE IS A STONE - John Smith
-----------------------------------------------------------------------------
Tabbed by:
Jerusha

Tuning:
Drop D - DADGBe
Capo 3

I tried to figure out the fine finger picking for the intro. It's not perfect but it 
works and should help you to figure out the way the rest of the song is picked.


e|------------------------------------------------------------------------|
B|---1------------------1--------------1---------------------1------------|
G|-------------0------------------0---------------0------------------0----|
D|--------2------------------2---------------2------------------2---------|
A|---0-------------0-------------------0----------------0-----------------|
E|------------------------------------------------------------------------|

e|---0--------------------0-------------0--------------------0------------|
B|------------------------------------------------------------------------|
G|-------------0-------------------0---------------0-------------------0--|
D|--------2-------------------2---------------2-------------------2-------|
A|---0--------------0-------------------0----------------0----------------|
E|------------------------------------------------------------------------|

e|---1-------------------0--------------1--------------------1------------|
B|------------------------------------------------------------------------|
G|-------------0-------------------0---------------0------------------0---|
D|--------2-------------------2---------------2------------------2--------|
A|---0--------------0-------------------0---------------0-----------------|
E|------------------------------------------------------------------------|

e|---0--------------------------------------------------------------------|
B|-------------------3-----------------1--------------0-------------------|
G|-------------0----------------0---------------0-------------0-----------|
D|--------2----------------2----------------2-------------2---------------|
A|---0---------------0----------------0--------------0--------------------|
E|------------------------------------------------------------------------|

e|----------------------------------0-------------------------------------|
B|---1-----------------1---3------------------------0---------------------|
G|------------0----------------0-----------0-----------------0------------|
D|--------2-----------------------------2----------------2----------------|
A|---0------------0--------2-------3-----------3--------------------------|
E|------------------------------------------------------------------------|

e|------------------------------------------------------------------------|
B|---1----------------1-----------------------------1---------------------|
G|-----------0----------------0------------0----------------0-------------|
D|-------3----------------3------------3----------------3-----------------|
A|------------------------------------------------------------------------|
E|---3------------3----------------3------------3-------------------------|

e|---------------------------------0-------3------------------------------|
B|---1----------------1---3-----------0------------1----------------------|
G|-----------0----------------0----------------0--------------------------|
D|-------2---------------------------------2------------------------------|
A|---0-----------0--------2-------3---------------------------------------|
E|------------------------------------------------------------------------|

e|---0-----------------0------------------------------0-------------------|
B|------------1-----------------1------------1-----------------1----------|
G|-------0-----------------0------------0-----------------0---------------|
D|---3------------3-----------------3------------3------------------------|
A|------------------------------------------------------------------------|
E|------------------------------------------------------------------------|

This is repeated twice before the pattern changes for the verse. As far as I can tell 
the chorus is played the same as the intro. Hopefully someone else is able to figure out 
the rest!


************************************
Tap to rate this tab
 
# A B C D E F G H I J K L M N O P Q R S T U V W X Y Z