Song name
# A B C D E F G H I J K L M N O P Q R S T U V W X Y Z

John Swihart - Nick And Sheeni Make Love tab

This is the song Nick and Sheeni Make Love from the movie Youth In Revolt.
Song By John Swihart
Covered by John Berglund (In The Movie)
Timing isn't that great so listen to the song and it is easy to hear the timing
http://www.youtube.com/watch?v=2_bSiGU7PCs&feature=related (note this tab comes in at 0:07)

Play on the high e string

e|-5----9--0--------9-10-12-10-9-7--5----9--0--------9-10-|
b|--------------------------------------------------------|
g|--------------------------------------------------------|
d|--------------------------------------------------------| 
a|--------------------------------------------------------|
e|--------------------------------------------------------|

e|-12-10-9-7--10----5--2--4--0--------0-|
b|--------------------------------------|
g|--------------------------------------|
d|--------------------------------------| Repeat
a|--------------------------------------|
e|--------------------------------------|

or on the high e and b string. (note tab is same timing as above)

e|5-9---9-10-12-10-9-7-5-9---9-10-12-10-9-7-10-5-------------|
b|----5--------------------5---------------------7-7/9-7/5-5-|
g|-----------------------------------------------------------|
d|-----------------------------------------------------------| Repeat
a|-----------------------------------------------------------|
e|-----------------------------------------------------------|

You can use a bit of tremolo to make it sound better
Tap to rate this tab
 
# A B C D E F G H I J K L M N O P Q R S T U V W X Y Z