Song name
# A B C D E F G H I J K L M N O P Q R S T U V W X Y Z

John Vanderslice - Numbered Lithograph tab

Highlighted       Show chord diagrams
-------------------------------------------------------------------------
		 NUMBERED LITHOGRAPH - John Vanderslice
-------------------------------------------------------------------------
Tabbed by: cdmoser	
Email: cdmoser@gmail.com

Tuning: standard
Capo 4

INTRO:
e|----------------------------------------|
B|---0----0----0----0---------------------|
G|---0----0----0----0---------------------|
D|---9----7----5----5-----x4--------------|
A|---10---9----7----7---------------------|
E|---x----x----x----x---------------------|

PLAY VERSE PROGRESSION LIKE THIS:
e|----------------------------------------|
B|---0----0----0--------------------------|
G|---0----0----0--------------------------|
D|---0----0----2--------------------------|
A|---x----x----2--------------------------|
E|---3----2----0--------------------------|
     G    F#   Em
    
         G       F#     Em
when you left me at the table
   G         F#   Em
to go to the ATM

C               D
I've never been lonelier
C               D         C
I've never been lonelier

         G     F#       Em
and your cell phone it shuddered and blinked
            G   F#    Em
it was your boyfriend again

C               D
I've never been lonelier
C               D
I've never been lonelier
C               D          C
I've never been lonelier

  G     F       E                 (use full barre chords for this bit)
a light-skinned black held up a
Am             G          G        F    E     
Charles Rennie Mackintosh numbered lithograph


-play intro riff here a couple times-

  G            F#          Em
I moved to the edge of the suburbs
         G    F#    Em
and lost most of my friends

C               D
I've never been lonelier
C               D
I've never been lonelier
C               D          C
I've never been lonelier

G    F#                 Em
bird crashed through my house one day
    G   F#	    Em   
and he panicked and thrashed
G   F#         Em   
up against the window glass
G   F#         Em
he crashed and crashed

C               D
I've never been lonelier
C               D
I've never been lonelier
C               D          C
I've never been lonelier

    G  F  E              (full barre chords again)
the boy recoiled as he
Am             G
got out of the heated pool
G   F      E
    it was midnight
Tap to rate this tab
# A B C D E F G H I J K L M N O P Q R S T U V W X Y Z