Song name
# A B C D E F G H I J K L M N O P Q R S T U V W X Y Z

John Vanderslice - Pale Horse tab

Highlighted       Show chord diagrams
Artist: John Vanderslice
Song: Pale Horse
Album: Cellar Door
Tabbed by: Don Tago
email: recebedou@yahoo.com


Standard Tuning

Intro/verse rythum chords
*this is played thruout the song with some variation
 Listen to the song to pick up on strumming
     F#     A      Bm        F#      A      Bm        F#
e|--------------------------------------------------------------|
B|---------2-2-2--------------------2-2-2-----------------------|
G|---------2-2-2---4-4-4-4----------2-2-2---4-4-4-4-------------|
D|---4-----2-2-2---4-4-4-4----4-----2-2-2---4-4-4-4---4---------| repeat
A|---4-----0-0-0---2-2-2-2----4-----0-0-0---2-2-2-2---4---------|
E|---2-------------2-2-2-2----2-------------2-2-2-2---2---------|


This chord is played for the end of verses
     D5
e|---------|
B|---------|
G|---7-----|
D|---7-----|
A|---5-----|
E|---5-----|
Tap to rate this tab
 
# A B C D E F G H I J K L M N O P Q R S T U V W X Y Z