Song name
# A B C D E F G H I J K L M N O P Q R S T U V W X Y Z

John W Duarte - Op 31 No 3 - English Suite - Round Dance tab

Title: English Suite - Round Dance
Composer: John Duarte (1919-2004)
*Written for Andre Segovia's wedding*
Tab by: Raul M.H. Bonde (b.1980) - montyhast@yahoo.com
Time: 9/8 and 6/8
Tuning: Standard 

  w = whole note            W = dotted whole
w+e = 4 & 1/2 
  h = half note             H = dotted half
h+e = 2 & 1/2
  q = quarter note          Q = dotted quarter
  e = eighth note           E = dotted eighth
  s = sixteenth note        S = dotted sixteenth 
  r = eight rest            R = quarter rest
 RR = half Rest             . = dotted rest (when placed after r,R,RR)
  F = sixteenth rest
 FR = 1 & 1/16 rest       RRr = 2 & 1/2 beat rest

********************************************************************************

                                                 CII......|    
  q     e  q     q     e  e    q     e  q     e  e  e  e
  h+e               Q          h+e               q     e 
1 |  .  |  .  |  .  |  .  |    |  .  |  .  |  .  |  .  |        
|-0-----0--0-----0-----0--2--|-0-----0--0-----0--5--2-----|
|-------------------3--------|-------------------2=====3--|
|-1==============------------|-1==============------------|
|-------------------4========|-------------------------4--|
|-------------------2========|-------------------------2--|
|-0==============------------|-0==============---2=====---|
 F

                    CVII.....|          CII......| 
  q     e  e  e  e  e  e  e    q     e  e  e  e    h+e               e  e  e  
  h+e               q     e    Q        q     e    q     e  q     q  Q
3 |  .  |  .  |  .  |  .  |    |  .  |  .  |  .    |  .  |  .  |  .  |  .  |  
|-0-----0--0--4--7--10-7-----|-5-----5--5--2-----|-------------------------2--|
|-------------------7=====8--|-2========2=====3--|-0==============---2--3-----|
|-1==============------------|----------------2--|-0==============---2========|
|-------------------------9--|-------------------|-0==============---2========|
|-------------------------7--|-0========------2--|----------------------------|
|-0==============---7=====---|----------2=====---|-3-----3--3-----3--2========|


                                cII...............cIII.....|
  h+e            RR             h+e               e  e  e  
  q     e  q     e  e  e  e     q     e  q     e  Q  	
6 |  .  |  .  |  .  |  .  |     |  .  |  .  |  .  |  .  |        
|----------------------------|--------------------------3--|
|-0==============RR----------|--3==============---5--7-----|
|-0==============RR----------|--2==============---3========|
|-0==============RR----------|--4==============------------|
|-------------------------0--|--2-----2--2-----2--3========|
|-0-----0--0-----0--2--4-----|-----------------------------|


  cII........................|                              CIII.....|
  h+e            RR            Q        R.         Q        e  e  e 
  q     e  q     e  e  e  e    q     e  e  e  e    q     e  q     r 
8 |  .  |  .  |  .  |  .  |    |  .  |  .  |  .    |  .  |  .  |  .    
|----------------------------|-0========R.-------|-------------------|
|-3==============RR----------|-1========R.-------|-3========3--5--7--|
|-2==============RR----------|-0========R.-------|----------3=====r--|
|-4==============RR-------2--|----------------0--|-4========---------|
|-2-----2--2-----2--3--5-----|-0-----0--2--3-----|-0-----2--3=====r--|
|----------------------------|-------------------|-------------------|


                                                 CII......|
  q     e  q     e  e  e  e    q     e  q     e  e  e  e
  h+e               Q          h+e               q     e
11|  .  |  .  |  .  |  .  |    |  .  |  .  |  .  |  .  |        
|-0-----0--0-----0-----0--2--|-0-----0--0-----0--5--2-----|
|-------------------3--------|-------------------2=====3--|
|-1==============------------|-1==============------------|
|-------------------4========|-------------------------4--|
|-------------------2========|-------------------------2--|
|-0==============------------|-0==============---2=====---|


                    CVII.....|          CII......| H+e                  
  q     e  e  e  e  e  e  e    q     e  e  e  e    R     e  q     e  e  e  e   
  h+e               q     e    Q        q     e    w+e------------------------ 
13|  .  |  .  |  .  |  .  |    |  .  |  .  |  .    |  .  |  .  |  .  |  .  |  
|-0-----0--0--4--7--10-7-----|-5-----5--5--2-----|-0====================0--2--|
|-------------------7=====8--|-2========2=====3--|-R-----5--5-----5--3--------|
|-1==============------------|-------------------|----------------------------|
|-------------------------9--|----------------4--|----------------------------|
|-------------------------7--|-0========------2--|----------------------------|
|-0==============---7=====---|----------2=====---|-0==========================|


  w+e
  R     e  q     e  e  e  e    e  e  e  e  e  e    e se E     se   F  
  -------------------------------------------------------------------|
16|  .  |  .  |  .  |  .  |    |  .  |  .  |  .    |  .  |  .  |  .    
|-0==========================|-------------------|-------------------|
|----------------------------|-------------------|-------------------|
|----------------------------|-------------------|-------------------|
|-------2--2-----2--0--2--4--|-2--0--2--4--2--0--|-2-02-4===--0------|
|----------------------------|-------------------|-------------2==-F-|
|============================|===================|===================|



  Q        Q          q     e  q     r         sQ        e    E    se  q     e 
  E    se  E    se    E    se  E    se    E    q     FR       Q        E    se  
19|  .  |  .  |  .    |  .  |  .  |  .    |  .  |  .  |  .    |  .  |  .  |  .
|-0========0========|-0-----3--2-----r--|-------0========---|-0----------------|
|-0========1========|-0-----5--0-----r--|-------0========0--|------31--0=====0-|
|----------2====0---|-0====24-----------|-------------------|-0----------------|
|-5====45--------4--|----------0====24--|------0------------|----------0=====--|
|-------------------|-------------------|-2====2=====FR-----|-3-------------0--|
|-------------------|-------------------|-------------------|----------3====-2-|

           CIII.....| CVII........................cVIII.....| cV       cIII
                      h+e            r
  E    se  E    se    h+e            e    q     r  q     r    q     r  q     r 
  Q        Q          E    se  q     r    E    se        e    E    se  E    se
23|  .  |  .  |  .    |  .  |  .  |  .    |  .  |  .  |  .    |  .  |  .  |  .
|-3----23--5----35--|-7==============r--|-------r--10----r--|-5-----r--3-----r-|
|----------5--------|-7==============0--|-8--------8-----r--|-7--------5-------|
|-4-----------------|-7==============r--|-9----7------------|-7----67--4----20-|
|-------------------|-------9-----------|-------10-9-----9--|------------------|
|----------3--------|------9------------|-------------------|------------------|
|-0-----------------|-7====----7=====r--|-------------------|------------------|


           cII......|                     cX.......cV   CVII           cVII....|
  E    se  E    se    Q        R.         E    se  q     e    E    se  E    se
  q     e  q     e    E    se  e  e  e    Q        E    se    Q        q     r 
27|  .  |  .  |  .    |  .  |  .  |  .    |  .  |  .  |  .    |  .  |  .  |  .
|-2----30-----------|-0--------r--0--7--|-12--1012-7-----7--|-10---910-7=====r-|
|-1-----0--3----23--|-0-----------------|----------------8--|-7--------8---108-|
|-2-----0--2-----2--|-0--------0--------|-12-------7--------|------------------|
|----------4--------|-------2-----------|-10-------5----97--|-0----------------|
|----------------2--|------2------------|-------------------|----------7=====r-|
|-------------------|-0-----------R-----|-------------------|------------------|


                                                                     CII......|    
  E    se  E    se    q     e  q     q     e  e    q     e  q     e  e  e  e
  q     e  q     e    h+e               Q          h+e               q     e 
31|  .  |  .  |  .    |  .  |  .  |  .  |  .  |    |  .  |  .  |  .  |  .  |        
|-------------------|-0-----0--0-----0-----0--2--|-0-----0--0-----0--5--2-----|
|-7----85--3----23--|-------------------3--------|-------------------2=====3--|
|-5-----4--2--------|-1==============------------|-1==============------------|
|----------------4--|-------------------4========|-------------------------4--|
|----------------2--|-------------------2========|-------------------------2--|
|-5-----3--2--------|-0==============------------|-0==============---2=====---|


                    CVII.....|          CII......| 
  q     e  e  e  e  e  e  e    q     e  e  e  e    h+e               e  e  e  
  h+e               q     e    Q        q     e    q     e  q     q  Q
34|  .  |  .  |  .  |  .  |    |  .  |  .  |  .    |  .  |  .  |  .  |  .  |  
|-0-----0--0--4--7--10-7-----|-5-----5--5--2-----|-------------------------0--|
|-------------------7=====8--|-2========2=====3--|-0==============---2--3-----|
|-1==============------------|-------------------|-0==============---2========|
|-------------------------9--|----------------4--|-0==============---2========|
|-------------------------7--|-0========------2--|----------------------------|
|-0==============---7=====---|----------2=====---|-3-----3--3-----3--2========|


                                cII...............cIII.....|
  h+e            RR             h+e               e  e  e  
  q     e  q     e  e  e  e     q     e  q     e  Q  	
37|  .  |  .  |  .  |  .  |     |  .  |  .  |  .  |  .  |        
|----------------------------|--------------------------3--|
|-0==============RR----------|--3==============---5--7-----|
|-0==============RR----------|--2==============---3========|
|-0==============RR----------|--4==============------------|
|-------------------------0--|--2-----2--2-----2--4========|
|-0-----0--0-----0--2--3-----|-----------------------------|


  cII........................|                              
  h+e            RR            Q        R.         Q        e  e  e 
  q     e  q     e  e  e  e    q     e  e  e  e    q     e  q     r 
39|  .  |  .  |  .  |  .  |    |  .  |  .  |  .    |  .  |  .  |  .    
|----------------------------|-0========R.-------|-------------0--2--|
|-3==============RR----------|-1========R.-------|-3========3--------|
|-2==============RR----------|-0========R.-------|----------3=====2--|
|-4==============RR-------2--|----------------0--|-3========------0--|
|-2-----2--2-----2--3--5-----|-0-----0--2--3-----|-0-----2--3=====---|
|----------------------------|-------------------|-------------------|


						 CII......|
  e  e  e  e  e  e  e  e  e    e  e  e  e  e  e  e  e  e
  h+e               Q          h+e               q 
42|  .  |  .  |  .  |  .  |    |  .  |  .  |  .  |  .  |        
|-0--0--0--0--0--0-----0--2--|-0--0--0--0--0--0--5--2-----|
|-------------------3--------|-------------------------3--|
|-1==============------------|-1==============------------|
|-------------------4========|-------------------4========|
|-------------------2========|-------------------2========|
|-0==============------------|-0==============------------|


   		    CVII.....|          CII......|	
  e  e  e  e  e  e  e  e  e    q     e  e  e  e    q     e  q     e  e  e  e
  h+e               q     e    Q        q     e    h+e               Q
44|  .  |  .  |  .  |  .  |    |  .  |  .  |  .    |  .  |  .  |  .  |  .  |  
|-0--0--0--0--4--7--10-7-----|-5-----5--5--2-----|-0-----0--0-----0-----0--2--|
|-------------------7=====8--|-2========2=====3--|-------------------3--------|
|-1==============------------|-------------------|-1==============---2========|
|-------------------------9--|----------------4--|-------------------4========|
|-------------------------7--|-0========------2--|----------------------------|
|-0==============---7=====---|----------2=====---|-0==============---0========|

 
  cIII..............
  q     e  q     e  e  e  e    q     RRr
  h+e               Q          q     e  q     q  q  q  q                              	
47|  .  |  .  |  .  |  .  |    |  .  |  .  |  .  |  .  |        
|----------------------0--2--|^0=====RRr------------------|
|-5-----5--5-----5--3--------|^0=====RRr------------------|
|-3==============---2========|^1=====RRr------------------|
|-5==============---4========|^2=====2--2-----2--0--2--4--|
|-3==============---2========|^2=====RRr------------------|
|----------------------------|^0=====RRr------------------|




  q     e  q     e  e  e  e    q     e  q     e  e  e  e 
49|  .  |  .  |  .  |  .  |    |  .  |  .  |  .  |  .  |        
|-0-----0--0-----0--0--0--0--|-0-----0--0-----0--0--0--0--|
|-0-----0--0-----0--0--0--0--|-0-----0--0-----0--0--0--0--|
|-1-----1--1-----1--2--2--2--|-1-----1--1-----1--2--2--2--|
|-2-----2--2-----2--0--0--0--|-2-----2--2-----2--0--0--0--|
|-2-----2--2-----2--0--0--0--|-2-----2--2-----2--0--0--0--|
|-0-----0--0-----0--0--0--0--|-0-----0--0-----0--0--0--0--|



                                  h  Q  q     RR  
  e  R.       e  e  e  e  e    h+e
51|  .  |  .  |  .  |  .  |    |  .  |  .  |  .  |  .  |        
|-0--R.-------------------2--|-R.-------12====RR----------||
|-0--R.----------------3-----|-R.-------9=====RR----------||
|-1--R.-------------2--------|----------------------------||
|-2--R.----------4-----------|-R-----9========RR----------||
|-2--R.-------2--------------|-r--7===========RR----------||
|-0--R.----------------------|-0==============RR----------||
 PP                           FFF                     Fine
Tap to rate this tab
# A B C D E F G H I J K L M N O P Q R S T U V W X Y Z