Song name
# A B C D E F G H I J K L M N O P Q R S T U V W X Y Z

John W Duarte - Op 31 No 1 - English Suite - Prelude tab

Prelude from The English Suite (Opus 31) by John W. Duarte (1919-2004)

Tabbed by Richard Finlan, Feb 2003. (last updated 17 Feb 2003)

Duarte arranged a trio of folk songs for the wedding of Andras Segovia. The
Prelude is quite a tricky piece to play, but should present few difficulties
for the average guitarist. It should be played slowly and calmly.

Tempo is a mixture of 3/4, 2/4 and 5/8   32bpm

Leggerio
0          $
E---7------|-------7----------7------|---0----12-----7---4------------------|
B------0---|---5------0---5------0---|----------------------7---5---7---2---|
G----------|-------------------------|---------------4----------6-------2---|
D----------|---6----------6----------|---4----------------------------------|
A----------|--------------4----------|---0----------------------0-------2---|
E----------|---0---------------------|---------------4----------------------|

3
E-------7------------7------|---0-----12---7----4--------------------|
B---5-------0---5-------0---|----------------------7---5---7---------|
G---------------------------|--------------4---------------------6---|
D---6-----------6-----------|---4----------------------6---------4---|
A---------------4-----------|---0----------------------4-------------|
E---0-----------------------|--------------4---------------------6---|


5                        C2____________
E--------------7-----|---5---4---5---2-----7------|
B---0-------------0--|---2-----------4--------0---|
G--------------------|----------------------------|
D---1----------------|----------------------------|
A---2---2---2--------|---------------2------------|
E--------------------|---2------------------------|


7   B3__________     B2
E---5---3------------2-------------|-----------0-----7---4----0------|
B----------7---5-----4-----0-------|------0----------------------2---|
G---3--------------------------2---|---1-----------------5-------2---|
D----------------------------------|---2-----------------------------|
A---3----------------2-------------|-----------4---------0-------2---|
E----------------------------------|---------------------------------|


9                                             B4_______            B2
E---0---7-------------7------|---0------12----7---4--------------------|
B----------0-----5-------0---|------------------------7----5---7---2---|
G---1------------------------|----------------4------------6-------2---|
D----------------6-----------|---4-------------------------------------|
A----------------4-----------|---0-------------------------0-------2---|
E---0------------------------|----------------4------------------------|


11                                             B4_______
E------7--------------7-------|---0------12----7---4-------------------|
B---5------0---5----------0---|-----------------------7----5---7-------|
G-----------------------------|----------------4-------------------6---|
D---6----------6--------------|---4------------------------6-------4---|
A--------------4--------------|---0------------------------4-----------|
E---0-------------------------|----------------4-------------------6---|


13                             B5_____________________________
E-------------------7------|---5---------5-----------10-------|
B---0------------------0---|--------8---------7-----------8---|
G--------------------------|---5--------------7---------------|
D---1----------------------|---5--------------5---------------|
A---2----2----2------------|----------------------------------|
E--------------------------|----------------------------------|

15
E---7---5---3------------10-------|
B---5----------5----7-------------|
G---5---------------7---------7---|
D-------------------9-------------|
A---5---------------10------------|
E---------------------------------|


                                                          al coda //
16  B8_________________________________________________    B9         B7
E---8------------8---------13--------|---10---8-----------------------7-------|
B---8-------11-------10--------------|---8-------11---8----10---------7---0---|
G---8----------------10---------10---|---8------------------9---------8-------|
D---8-----------------8--------------|---------------------11---------7---7---|
A------------------------------------|---8------------------9---------9---8---|
E------------------------------------|--------------------------------7-------|
                                                                     molto rit

Molto meno mosso e calmo

                        B3
E ------0---0---2---|---3------2---2---|---0---------------------------|
B ---0--------------|------------------|---0-----0---------0---2---3---|
G ---0----------2---|---4------2-------|---0---------------0-----------|
D ---2----------0---|----------0-------|---2-----2---------------------|
A ------------------|------------------|---------------0---2-------4---|
E ------------------|---3--------------|---------3---------------------|


                                                            B2
E---0-------------------|-------0---0---2---|---3---3---3---2---2---|
B---0---------------0---|---0---------------|---0-------2---3-------|
G---0-------------------|---0-----------2---|-----------------------|
D-------------------0---|---2-----------0---|-----------------------|
A--------2---2---4------|-------------------|-----------0---2-------|
E---0-------------------|-------------------|---3-------------------|


                  B2______
E---0-------------------------|
B--------0----0---2---3-------|
G---0----0----------------2---|
D-----------4-----------------|
A---3---------0-------2-------|
E--------3--------------------|


E---0----------------3---5---|---7---7----5----2---0---|------------0-----2---|
B---0------------------------|------------3----2-------|---3--------0---------|
G---0------------------------|---7---------------------|----------------------|
D----------------2-----------|---5--------4------------|---4------------------|
A---------4---5--------------|-----------------0-------|---2----0-------------|
E---0------------------------|-------------------------|-------------3---2----|


                                B2 //                           B2__________
E--3---5----2-----------|--3----2----3---5---|--7---------------5------2------|
B-----------3---0-------|--2----4------------|------------0---------------2---|
G--4---6----------------|--------------------|---------0---------------2------|
D-----------0-----------|--------------------|------0---------------2---------|
A-------------------0---|--1----2------------|--------------------------------|
E--0------------3-------|--------------------|--3----------------2------------|


                  B2____                   B2_____________            B2
E--3-----0-----------------------------|--------------------------------------|
B--------0----2-----3------0---1---3---|---2------------------0---3---5---3---|
G-----0----------------2---1-----------|---2------2-----------0---------------|
D-------------------4------------------|------------------0---2-------4-------|
A-----------------2--------------------|----------2----4--------------4-------|
E--0-----------------------------------|-------2------------------------------|


                                                      B2
E---0---------------------3----5---|---7-------5--------2---|
B---0----------------0----5--------|-------0---2-----3------|
G---0------------------------------|------------------------|
D-------------0---2----------------|-------0----------------|
A----------2-----------------------|-----------0-----2------|
E-------0--------------------------|-------3----------------|


                                   B2_____ D.S. al $
E--3------0------------------------|-----------------------------------------||
B--0---------------3---------------|---2-------------------0----3----5---3---||
G----------------------4---5---7---|---2--------2----------0----2----2-------||
D------------------4---------------|---2-----------4---2---0----0----4-------||
A--------------0---2---------------|---0--------3--------------------2-------||
E--0---2---3-----------------------|-------3----2----------3----2------------||
                                    e poi la coda

CODA

    B7                         B4         
E---7----------|-------7-----------7------|
B---7----0-----|---5------0----5------0---|
G---7----------|--------------------------|
D---7------7---|---6-----------6----------|
A---9----------|---------------4----------|
E---7----------|---0----------------------|


                                           B2
E---0---------12---7----4----------------------|
B--------------------------7-----5---7-----2---|
G------------------4-------------6---------2---|
D---4------------------------------------------|
A--------------------------------0---------2---|
E---0--------------4---------------------------|


     poco rall                    
E----------7--------------7------|
B---5---------0---5----------0---|
G--------------------------------|
D---6-------------6--------------|
A-----------------4--------------|
E---0----------------------------|


                    B4
E---0--------12-----7----4----------------------|-----------------7------|
B--------------------------7-----5---7----------|---0----------------0---|
G-------------------4-----------------------6---|------------------------|
D---4----------------------------6--------------|---1--------------------|
A---0----------------------------4----------4---|---2---2---2------------|
E-------------------4-----------------------6---|------------------------|


    B2______________                 B3__________   B2
E---5---4---5-----2------7------|---5---3---2-------2-----------|
B---2-------------4---------0---|--------------5----4----0------|
G-------------------------------|---3-----------------------2---|
D-------------------------------|-------------------------------|
A-----------------2-------------|---3---------------2-----------|
E---2---------------------------|-------------------------------|


                                    B2      meno mosso
E ------------0-----7---4----0----------|---0-----7----------------7-------|
B -------0--------------------------2---|---0---------0-----5----------0---|
G ---1------------------6-----------2---|---1---------------5--------------|
D ---2----------------------------------|---2---------------4--------------|
A ------------4---------0-----------2---|-------------------5--------------|
E --------------------------------------|----------------------------------|


                                      Tempo 1
E ---0--------12-----7----4---------------------|---0---------------16---||
B ---0------------------------7---5---7-----2---|----------12------------||
G ---0---------------8------------6---------2---|---1--------------------||
D ----------------------------------------------|----------------14------||
A ---5---------------8------------0---------2---|------------------------||
E ----------------------------------------------|---0--------------------||
                                                                        Fine


Hope you enjoyed it.
Any mistakes contact me at finric@hotmail.com
Tap to rate this tab
# A B C D E F G H I J K L M N O P Q R S T U V W X Y Z