Song name
# A B C D E F G H I J K L M N O P Q R S T U V W X Y Z

John Waite - Better Off Gone tab

-------------------------------------------------------------------------------
                             SONG NAME - Better Off Gone
-------------------------------------------------------------------------------
John Waite and Kyle Cook
CD: Rough and Tumble 

Tabbed by:BOB

Tuning:Standard



  Intro/main riff:
e|-------------------------------3-------------3-3-3-3-----------------------|
B|------------------------2--3-3-3--3-3-2--3-3-3-3-3-3-----------------------|
G|----2----2-----0----0---2--2-2----2-2-2--2-2-------------------------------|
D|-0h2--0h2---0h2--0h2-0--2--2-2--------2--2-2-------------------------------|
A|-------------------------------x-------------x-x-x-x-2---------------------|
E|-------------------------------3-------------3-3-2-2-0---------------------|

  Verse Riff:

e|---0-------------0----------0---3--0-----0---------------------------------|
B|------------3-------------3--3-----2--------------3------------------------|
G|-7---6--4-4-0--7---6--4-4-0---0----2---7---6--4-4-0------------------------|
D|-7---7--5-5-4--7---7--5-5-4--------2---7---7--5-5-4--5\--------------------|
A|-7---7--5-5-0--7---7--5-5-0-----x------7---7--5-5-0--5\--------------------|
E|--------------------------------3--------------------3\--------------------|
                                                       Made a loser outta me

  
   Chorus:

     Asus4   A     G                    Asus4   A         G
  Cuz One of these days You're gonna be with somebody and I

                Asus4   A    D/B                    A
  Don't want to hurt no one. Gonna let these horses run

                    G
  straight into the morning sun. Cuz I'm better of gone.       


  D/B
e|-2-
B|-3-
G|-2-
D|-0-
A|-2-
E|-0-


************************************

| \   slide down
| h   hammer-on
| x   Mute note


************************************
Tap to rate this tab
# A B C D E F G H I J K L M N O P Q R S T U V W X Y Z