Song name
# A B C D E F G H I J K L M N O P Q R S T U V W X Y Z

John Williams - The Throne Room tab

Help us improve GuitareTab! Take a short survey!
The Throne Room
Star Wars Episode IV: A New Hope

|----------------------------------------|
|---------------5-5-5-5--5--5-5-5-1-1-1--|
|--5-5-5-5-5-5--5-5-5-5--1--5-5-5-1-1-1--|
|----------------------------------------|
|----------------------------------------|
|----------------------------------------|

|--3----3-3-3--3-3-3--0--3-3-0-0-0--|
|--5----5-5-5--5-5-5--1--5-5-1-1-1--|
|--5----5-5-5--5-5-5--1--5-5-1-1-1--|
|-----------------------------------|
|-----------------------------------|
|-----------------------------------|


|--4---4--4-4--6--6-6-6--8---8--8--8---10--|
|--6---6--6-6--8--8-8-8--10--10-10-10--12--|
|--6---6--6-6--8--8-8-8--10--10-10-10--12--| Im really not sure about this
|------------------------------------------|part, sounds kinda good though :)
|------------------------------------------|(Maybe you should grab everything
|------------------------------------------|1 fret up, I dont know, it sounds good 2, 
Im not a very good tabber)


|-------1------3---4-6-4------------1----3-4--1-4-1--8---6---|
|--1--1--------------------1---1--1--------------------------|
|------------------------------------------------------------|
|------------------------------------------------------------|
|------------------------------------------------------------|
|------------------------------------------------------------|

|--------1----3-4----1-8---4-13-----1---4-3--1---8---4-3-1------1----|
|--1---1----------------------------------------------------1--------|
|--------------------------------------------------------------------|
|--------------------------------------------------------------------|
|--------------------------------------------------------------------|
|--------------------------------------------------------------------|

So this is just the intro part, correct me if anythigns wrong :)
Related for The Throne Room tab