Song name
# A B C D E F G H I J K L M N O P Q R S T U V W X Y Z

John Williams - Star Wars Main Theme tab

A nice and easy version of this recognisable tune for the guitar.

John Williams
Star Wars Main Theme
Star Wars Soundtrack


INTRO
e---------------------3------------3-------------|
B-----------3---1-0------3---1-0------3---1-0-1--|
G-------0-----------2------------2--------------2|   x2
D-0-0-0------------------------------------------|
A------------------------------------------------|
E------------------------------------------------|

2ND PART
e------------------------------------------------|
B------------1-0---------0--------------------1-0|
G----------------2-0-0h2---2---------------------|
D-0-0-0-2--2-----------------2-4---0-0-0-2--2----|
A------------------------------------------------|
E------------------------------------------------|

e--------------------------------------------|
B-----3------------------1-0---------0-------|
G-2-0---2-2------------------2-0-0h2---2-----|
D-------------0-0-0-2--2-----------------2-4-|
A--------------------------------------------|
E--------------------------------------------|

END of 2ND PART

e--------3-1-0-----------------------------------|
B-3-3-3--------3-1-0-----3-------------------1---|
G--------------------2-0-----------------------2-|
D----------------------------0-0-0-0--0-2--2-----|
A------------------------------------------------|
E------------------------------------------------|

REPEAT INTRO minus the D-0-0-0-|
Tap to rate this tab
# A B C D E F G H I J K L M N O P Q R S T U V W X Y Z