Song name
# A B C D E F G H I J K L M N O P Q R S T U V W X Y Z

John Williams - Double Trouble tab

Song: Double Trouble
Composer: John Williams
Lyrics By: William Shakespeare
Album: Harry Potter and the Prisoner of Azkaban 

Refrain
e|--------------------------------------------------------------------------| 
B|-12p10-12---12p10-12---13--10--12--12--12------------------------12--12---|
G|-------------------------------------------14/12-11--11--11--11-----------|
D|--------------------------------------------------------------------------| 
A|--------------------------------------------------------------------------|
E|--------------------------------------------------------------------------|

e|-------------------------------------11----11-11--11--11--11--11~------| 
B|-------------------10------12p10-12------------------------------------|
G|-9h11-12--9h11-12------11----------------------------------------------|
D|-----------------------------------------------------------------------| 
A|-----------------------------------------------------------------------|
E|-----------------------------------------------------------------------|

Verse
e|-12----11-11--------------------------------------------------------| 
B|-------------14--14--13--13~--------13----12-12-10--10--------------|
G|--------------------------------------------------------13--13~-----|
D|--------------------------------------------------------------------| 
A|--------------------------------------------------------------------|
E|--------------------------------------------------------------------|

e|-11----10-10----------------------------------------11--11~-------| 
B|-------------13--13--12--12~---------12---------------------------|
G|----------------------------------------9-9-12--12----------------|
D|------------------------------------------------------------------| 
A|------------------------------------------------------------------|
E|------------------------------------------------------------------|

Repeat Refrain

Second Verse
e|---------------------------------------------------------------| 
B|-10----9-9-----------------------------------------------------|
G|-----------11--11--9--9~--------11----9-9-8--8-----------------|
D|------------------------------------------------11--11~--------| 
A|---------------------------------------------------------------|
E|---------------------------------------------------------------|

e|---------------------------------------------------------------| 
B|-11----10-10---------------------------------------------------|
G|-------------12--12--11--11~--------12----11-11-9--9-----------|
D|------------------------------------------------------12--12---| 
A|---------------------------------------------------------------|
E|---------------------------------------------------------------|

Final Refrain
e|---------------------------------------------------------| 
B|-12p10h12~-------12p10h12~-------13~-----10-12p10h12~----|
G|---------------------------------------------------------|
D|---------------------------------------------------------| 
A|---------------------------------------------------------|
E|---------------------------------------------------------|

e|----------------------------------------------------------| 
B|-10~--------12~--------10------------------------10-------|
G|---------11---------12-------11----9--9--9h11-12----------|
D|----------------------------------------------------------| 
A|----------------------------------------------------------|
E|----------------------------------------------------------|

e|------------------------------------------------------------------------------| 
B|-12p10-12---12p10-12---13p12-10---12p10-12--12-----------------------12--12---|
G|-----------------------------------------------14/12-14--11--11--11-----------|
D|------------------------------------------------------------------------------| 
A|------------------------------------------------------------------------------|
E|------------------------------------------------------------------------------|

e|---------------------------------------------------------------12-12~-------| 
B|-------------------10------12-10-12----------------12-12~-------------------|
G|-9h11-12--9h11-12------11------------9---9-11--11---------------------------|
D|----------------------------------------------------------------------------| 
A|----------------------------------------------------------------------------|
E|----------------------------------------------------------------------------|

e|-12---12-12--12--11--11--12--| 
B|-----------------------------|
G|-----------------------------|
D|-----------------------------| 
A|-----------------------------|
E|-----------------------------|

Double, double, toil and trouble 
Fire burn and cauldron bubble 
Double, double, toil and trouble 
Something wicked this way comes. 

Eye of newt and toe of frog, 
Wool of bat and tongue of dog, 
Adder's fork and blind-worm's sting, 
Lizard's leg and howlet's wing. 

Double, double, toil and trouble 
Fire burn and cauldron bubble 
Double, double, toil and trouble 
Something wicked this way comes. 

In the cauldron boil and bake, 
Fillet of a fenny snake, 
Scale of dragon, tooth of wolf, 
Witches' mummy, maw and gulf.

Double, double, toil and trouble 
Fire burn and cauldron bubble 

Double, double, toil and trouble 
Fire burn and cauldron bubble 
Double, double, toil and trouble 
Fire burn and cauldron bubble

Something wicked this way comes.


and yer done.
Tap to rate this tab
 
# A B C D E F G H I J K L M N O P Q R S T U V W X Y Z