Song name
# A B C D E F G H I J K L M N O P Q R S T U V W X Y Z

John Williams - Anakins Love Song tab

I found this in the internet, but the ending was - in my opinion - not correct. I
hope this one is better. Enjoy ;)

E-------------------------------------------|
B------------1------------------------------|
G----3----0----3-2-3--0--3-2-0-2-----0------|
D-0-------------------------------3-----3-0-|
A-------------------------------------------|
E-------------------------------------------|

E-----------------------------------|
B------------------1-----3--1-------|
G----3----0--0-2-3----2---------2---|
D-0---------------------------------|
A-----------------------------------|
E-----------------------------------|

E----1----------------------1---------------|
B-3------4-3-1--1-3-4----1------4-3-1-0-3---|
G-----------------------------------------0-|
D-------------------------------------------|
A-------------------------------------------|
E-------------------------------------------|

E----------------------------------------------------|
B----------------------------------------------------|
G-0---3----1--0-------0-1--------3----1--0-------0---|
D----------------3--3--------3--------------3--2-----|
A--------------------------------------------------3-|
E----------------------------------------------------|
Tap to rate this tab
# A B C D E F G H I J K L M N O P Q R S T U V W X Y Z