Song name
# A B C D E F G H I J K L M N O P Q R S T U V W X Y Z

John Williams - Harry Potter Theme tab

---------------------------------------------------------------------------
			     Harry Potter - Soundtrack
---------------------------------------------------------------------------
Tabbed by: DaniNani			
Email: danielfedailarsen@hotmail.com

Tuning: Standard

e|----------------7--5--2--0--3--2-----1-------------------7--10--9--8----|
B|-0--5--8--7--5--------------------3-------0--5--8--7--5-----------------|
G|------------------------------------------------------------------------|
D|------------------------------------------------------------------------|
A|------------------------------------------------------------------------|
E|------------------------------------------------------------------------|

e|------------------------------------------------------------------------|
B|-5--8--7--6-------------------------------------------------------------|
G|-------------0--8--5----8--12--8--12--8--15--14--13--10--13--12--11--0--|
D|------------------------------------------------------------------------|
A|------------------------------------------------------------------------|
E|------------------------------------------------------------------------|

e|------------------------------------------------------------------------|
B|-8--12----8--12--8--12--8--15--14--13--10--13--12--11--0--8--5----------|
G|------------------------------------------------------------------------|
D|------------------------------------------------------------------------|
A|------------------------------------------------------------------------|
E|------------------------------------------------------------------------|


Tap to rate this tab
 
# A B C D E F G H I J K L M N O P Q R S T U V W X Y Z