Song name
# A B C D E F G H I J K L M N O P Q R S T U V W X Y Z

John Williams - Jurassic Park Theme tab

Easy enough to figure out the rythm for those who have heard the song. Good song, fun to 
Enjoi!


E|-----------------------------------------------------|
B|-----------------------------------------------------|
G|-------------------------------9-9-12-11----9--------|
D|--12-11-12--12-11-12--12-11-12-----------12----11----|
A|-------------------------------------------------12--|
E|-----------------------------------------------------|

E|-------------------------------------------|
B|-------------------------------------------|
G|--11------------12--11-11-9-9--------------|
D|-----12-14-12-----------------12-11-12-----|
A|-------------------------------------------|
E|-------------------------------------------|

E|-------------------------------------------------------|
B|-------------------------------------------------------|
G|-------------------------------------------------------|
D|--12-11-12-------12-11-12-------12-11-12-------10------|
A|-----------12-10----------12-10----------12-10---------|
E|-------------------------------------------------------|
Tap to rate this tab
 
# A B C D E F G H I J K L M N O P Q R S T U V W X Y Z