Song name
# A B C D E F G H I J K L M N O P Q R S T U V W X Y Z

John Williams - Across The Stars tab

----------------------------------------------------------------------------
			     ACROSS THE STARS  John Williams
----------------------------------------------------------------------------
Tabbed by: Tim
Email: jtcd13@yahoo.com

Tuning: Standard

e|----3-----------0-----5-3-2-3-----0-----3-2-0-2---0-----------------------|
B|--0-----0-----0-----0-----------0-----0---------3-----1-----1-3-0---------|
G|------0-----0-----0-----------0-----0---------------0-----0---------------|
D|--1-2-----2-----2-----3-2-1-2-----2-----2-0-2-0---2-----2-------4---------|
A|--------------------------------------------------------------------------|
E|--------------------------------------------------------------------------|

e|----3-----------0-----5-3-2-3-----0-----0-0-2-3-5-2-7-5-7-----------------|
B|--0-----0-----0-----0-----------0-----0-----------------------------------|
G|------0-----0-----0-----------0-----0-------------------------------------|
D|--1-2-----2-----2-----3-2-1-2-----2-----2-2-0-2-3-0-5-0-4-----------------|
A|--------------------------------------------------------------------------|
E|--------------------------------------------------------------------------|

************************************
Tap to rate this tab
 
# A B C D E F G H I J K L M N O P Q R S T U V W X Y Z