Song name
# A B C D E F G H I J K L M N O P Q R S T U V W X Y Z

John Williams - Binary Sunset tab

This is the song played both in Epi. III and Epi. IV at the Lars Homestead.

*!*This is the version played in the movie to clear up any confusion.*!*

If you want to play the one off the soundtrack play it half a step down. Hope you enjoy.

|----4---6---7-9-7---------4---6-7---7-4-11-9---|
|--4-----------------4---4---------4------------|
|-----------------------------------------------|
|-----------------------------------------------|
|-----------------------------------------------|
|-----------------------------------------------|

|------4---6-7-4-11-7-16------7-6-4-11--7-4--------4---|
|--4-4---------------------9----------------4--4-4-----|
|------------------------------------------------------|
|------------------------------------------------------|
|------------------------------------------------------|
|------------------------------------------------------|
Tap to rate this tab
 
# A B C D E F G H I J K L M N O P Q R S T U V W X Y Z