Song name
# A B C D E F G H I J K L M N O P Q R S T U V W X Y Z

John Williams - The Imperial March tab

I just made this tab in 5 minutes, based on a version of this song 


-----------------------------------------------------------------------------
			     The Imperial March - John Williams
-----------------------------------------------------------------------------
Tabbed by:Philip 
Email: philipfranchi@gmail.com

Tuning: Standard




I just made this tab in 5 minutes, based on a version of this song played by 
Marty Schwartz


Get either a 2nd guitarist or a loop pedal to play this part.


e|--------------------------------------------------------------------------|
B|--------------------------------------------------------------------------|
G|--12-12-12121212----------------------------------------------------------|
D|--12-12-12121212-13131313-------------------------------------------------|
A|--10-10-10101010-13131313-------------------------------------------------|
E|-----------------11111111-------------------------------------------------|

Melody

e|--------------------------------------------------------------------------|
B|-------------------------15-15-15-16--------------------------------------|
G|12-12-12--15p12----15p12-------------15p12--15p12-------------------------|  
D|--------13-------13-----------------------13------------------------------|
A|--------------------------------------------------------------------------|
E|--------------------------------------------------------------------------|

e|--------------------------------------------------------------------------|
B|-------------------------15-15-15-16--------------------------------------|
G|12-12-12--15p12----15p12-------------15p12--15p12-------------------------|  
D|--------13-------13-----------------------13------------------------------|
A|--------------------------------------------------------------------------|
E|--------------------------------------------------------------------------|
Tap to rate this tab
# A B C D E F G H I J K L M N O P Q R S T U V W X Y Z