Song name
# A B C D E F G H I J K L M N O P Q R S T U V W X Y Z

John Williams - Jaws Theme tab

|---------------------------------------------------------------------------|
                            JAWS Theme - John Williams
|---------------------------------------------------------------------------|

Tuning: Drop D

h = hammer-on

(The tabbing is not in perfect time, for visual purposes. To get a feel for how and when 
to execute
and hold the notes, listen to the song. By the way, I like this to have a metal feel, so 
I suggest
a rather heavy distortion.)



e|--------------------------------------------------------------------|
B|--------------------------------------------------------------------|
G|--------------------------------------------------------------------|
D|--2-----2--3-----2--3--2-----2--3--2--3-----2--3--2--3--2--3--2--3--|
A|--2-----2--3-----2--3--2-----2--3--2--3-----2--3--2--3--2--3--2--3--|
D|--2-----2--3-----2--3--2-----2--3--2--3-----2--3--2--3--2--3--2--3--|


e|-----------------------------------------------------------------------|
B|-----------------------------------------------------------------------|
G|--------------------------------------------------------------------6--|
D|2-3-2-3-2-3-2-3-2-3-0-2-2-3-0-2-2-3-2-3-2-3-2-3-2-3-2-3-2-3-2-3--------|
A|2-3-2-3-2-3-2-3-2-3-0-2-2-3-0-2-2-3-2-3-2-3-2-3-2-3-2-3-2-3-2-3-4h5----|
D|2-3-2-3-2-3-2-3-2-3-0-2-2-3-0-2-2-3-2-3-2-3-2-3-2-3-2-3-2-3-2-3--------|


e|-----------------------------------------------------------------------|
B|-----------------------------------------------------------------------|
G|-----------------------------------------------------------------------|
D|2-3-2-3-2-3-2-3-2-3-2-3-2-3-2-3-----6------8-------6--8-6--------------|
A|2-3-2-3-2-3-2-3-2-3-2-3-2-3-2-3-4h5----6h7-----4h5--------6-4----------|
D|2-3-2-3-2-3-2-3-2-3-2-3-2-3-2-3----------------------------------------|


          This should get you started.
Tap to rate this tab
 
# A B C D E F G H I J K L M N O P Q R S T U V W X Y Z