Song name
# A B C D E F G H I J K L M N O P Q R S T U V W X Y Z

John Williams - Harry Potter Theme tab

-------------------------------------------------------------------------------
                             Harry Potter Theme
-------------------------------------------------------------------------------
E-mail: skateboy2000@live.com

Tuning:Here are the tabs for the Harry Potter Theme (hedwigs theme),
email me for more tabs,
tabs4u:)


e|--------------------------------------------------------------0------------|
B|--------------------------------------------------1-0-----------3------0---|
G|----------------------------------------------2-------2--------------------|
D|------------2---------------------2---------2--------------------------2---|
A|--0-------3-------------0-------3-------------0-------0---------0----------|
E|--------------------0-----------------------0------------------------------|

e|---------------------------------------------------------------0-3----2-1--|
B|------------1-0--------------------------------------1-0-------------------|
G|----2-----------0-------3---------------------2----------2-----------------|
D|----------------1---------2-----------------2------------2-----------------|
A|----0---------3-----------0-------------------0------------------0------0--|
E|--0---------------------0-----------0--------------------------------------|

e|----1----------------------------------------------------------------------|
B|--2-----------5-4----------1-----------------------------------------------|
G|--------------------2--------2---------------------------------------------|
D|------------------2---------------------2----------------------------------|
A|----0---------------0--------0--------3----------0-------------------------|
E|-----------------------------------------------0---------------------------|

e|-------------------------------------------0------------|
B|-------------------------------1-0-----------3------0---|
G|---------------------------2-------2--------------------|
D|---------------2---------2--------------------------2---|
A|-----0-------3-------------0-------0---------0----------|
E|-0-----------------------0------------------------------|

e|---------------------------------------------------------------0-3----2-1--|
B|------------1-0--------------------------------------1-0-------------------|
G|----2-----------0-------3---------------------2----------2-----------------|
D|----------------1---------2-----------------2------------2-----------------|
A|----0---------3-----------0-------------------0------------------0------0--|
E|--0---------------------0-----------0--------------------------------------|

e|----1----------------------------------------------------------------------|
B|--2-----------5-4----------1-----------------------------------------------|
G|--------------------2--------2---------------------------------------------|
D|------------------2---------------------2----------------------------------|
A|----0---------------0--------0--------3----------0-------------------------|
E|-----------------------------------------------0---------------------------|


Here is a simpler version with no double notes,

e|--------------------------------------------------------------0------------|
B|--------------------------------------------------1-0-----------3------0---|
G|----------------------------------------------2-------2--------------------|
D|------------2---------------------2---------2------------------------------|
A|--0-------3-------------0-------3------------------------------------------|
E|--------------------0------------------------------------------------------|

e|---------------------------------------------------------------0-3----2-1--|
B|------------1-0--------------------------------------1-0-------------------|
G|----2-----------2-------3---------------------2----------2-----------------|
D|--------------------------2-----------------2------------------------------|
A|---------------------------------------------------------------------------|
E|--0---------------------------------0--------------------------------------|

e|----1----------------------------------------------------------------------|
B|--2-----------5-4----------1-----------------------------------------------|
G|--------------------2--------2---------------------------------------------|
D|------------------2---------------------2----------------------------------|
A|--------------------------------------3----------0-------------------------|
E|-----------------------------------------------0---------------------------|

e|-------------------------------------------0------------|
B|-------------------------------1-0-----------3------0---|
G|---------------------------2-------2--------------------|
D|---------------2---------2------------------------------|
A|-----0-------3------------------------------------------|
E|-0------------------------------------------------------|

e|---------------------------------------------------------------0-3----2-1--|
B|------------1-0--------------------------------------1-0-------------------|
G|----2-----------2-------3---------------------2----------2-----------------|
D|--------------------------2-----------------2------------------------------|
A|---------------------------------------------------------------------------|
E|--0---------------------------------0--------------------------------------|

e|----1----------------------------------------------------------------------|
B|--2-----------5-4----------1-----------------------------------------------|
G|--------------------2--------2---------------------------------------------|
D|------------------2---------------------2----------------------------------|
A|--------------------------------------3----------0-------------------------|
E|-----------------------------------------------0---------------------------|
Tap to rate this tab
 
# A B C D E F G H I J K L M N O P Q R S T U V W X Y Z