Song name
# A B C D E F G H I J K L M N O P Q R S T U V W X Y Z

John Williams - Hedwigs Theme tab

Title: Hedwig's Theme
Composer: John Williams
Tabbed by: LakituPL
Tuning: Standard

e|------------------------------------------|
B|------------------------------------------|
G|-------------4-2--------------------------|
D|----2--5-4-2-----4--2--5-4-0--3-----------|
A|--2-----------------------------2---------|
E|------------------------------------------|

e|------------------------------------------|
B|------------------------------------------|
G|--------------4-7--6-5--2-5--4-3----------|
D|----2--5-4-2------------------------5-2---|
A|--2------------------------------2--------|
E|------------------------------------------|

e|------------------------------------------|
B|------------------------------------------|
G|----4---4---5--4-3-----4-3-----4----------|
D|--5---5---5--------4-5--------------------|
A|---------------------------2-3------------|
E|------------------------------------------|

e|------------------------------------------|
B|------------------------------------------|
G|----4---4---7--6-5-2-5--4-3---------------|
D|--5---5---5-------------------5-2---------|
A|----------------------------2-------------|
E|------------------------------------------|
Tap to rate this tab
# A B C D E F G H I J K L M N O P Q R S T U V W X Y Z