Song name
# A B C D E F G H I J K L M N O P Q R S T U V W X Y Z

John Williams - Jurassic Park Theme tab

this is a correction to tabs that are already submited here but are wrong....


e---------------------------0-0--2--3--2--2---0------2---0--5----3--2-2--0-0-|
B-----3----3-2-3----3-2-3-------------------3----2-----3------3--------------|
G--------------------------------------------------2-------------------------|
D-----4-----------------------------0--------------0--------4-4--0-----------|
A---------------------------0-------------0----------0---0--5------------0---|
E----------------------------------------------------------------------------|

e-------------------------------------------------|
B--3-2-3-----3-2-3-----3-2-2-3------3-2----3-2-3--|
G--------2-0-------2-0---------2---------------2--|
D--4-------------------------0-0--0------------0--|
A--------4-0-------4-0----------------0--------0--|
E-------------------------------------------------|
Tap to rate this tab
# A B C D E F G H I J K L M N O P Q R S T U V W X Y Z