Song name
# A B C D E F G H I J K L M N O P Q R S T U V W X Y Z

John Williams - Somewhere In My Memory tab

#-------------------------------PLEASE NOTE---------------------------------#
#This file is the author's own work and represents their interpretation of the #
#song. You may only use this file for private study, scholarship, or research. #
#---------------------------------------------------------------------------##

                             SOMEWHERE IN MY MEMORY

Words by Leslie Bricusse Music by John Williams

Gtr I (E A D G B E) - 'Untitled'

  Q=80
 4/4
  Gtr I
  Q  Q  Q  Q    H    H
|-------------|-5---------|
|-5-----5-----|-5----5----|
|-6--6--6--6--|-6----6----|
|-7--7--7--7--|------7----|
|----0-----0--|-----------|
|-------------|-----------|


  Q  Q  Q  E E   H    Q  Q    Q  Q  Q  Q    H    H
|----2--0------|------------|-------------|-5---------|
|-0----------3-|-2----0-----|-5-----5-----|-5----5----|
|----------2---|-2----1-----|-6--6--6--6--|-6----6----|
|--------------|------------|-7--7--7--7--|------7----|
|--------------|------------|----0-----0--|-----------|
|--------------|------------|-------------|-----------|


  E E Q  E E Q    H    H      Q  E E Q  Q    Q  E E Q  Q
|---5-----------|-----------|--------------|--------2--0---|
|-7--------5----|-2----0----|----2---3-----|----4----------|
|-----7--6------|-2----1----|------2----4--|------4--------|
|------------7--|-----------|--------------|---------------|
|---------------|-----------|--------------|---------------|
|---------------|-----------|--------------|---------------|


  Q  E E Q  Q    Q  E E H
|----1---4--2--|----5-2-4----|
|------2-------|-------------|
|--------------|-------------|
|--------------|-------------|
|--------------|-------------|
|--------------|-------------|


  Q  Q  Q  Q    H    H      Q  Q  Q  E E
|-------------|-5---------|----2--0------|
|-5-----5-----|-5----5----|-0----------3-|
|-6--6--6--6--|-6----6----|----------2---|
|-7--7--7--7--|------7----|--------------|
|----0-----0--|-----------|--------------|
|-------------|-----------|--------------|


  H    H      Q  Q  Q  Q    H    H
|-----------|-------------|-5---------|
|-2----0----|-5-----5-----|-5----5----|
|-2----1----|-6--6--6--6--|-6----6----|
|-----------|-7--7--7--7--|------7----|
|-----------|----0-----0--|-----------|
|-----------|-------------|-----------|


  Q  S S E Q  Q    Q  S S E Q  Q    Q  S S E Q  Q
|----2-4-5-0-----|----2-4-5-0-----|----2-4-5-0-----|
|-------------2--|-------------2--|-------------2--|
|----------------|----------------|----------------|
|----------------|----------------|----------------|
|-0--------------|-0--------------|-0--------------|
|----------0-----|----------0-----|----------0-----|


  Q  H    Q     W
|----5----4--|-^5----*|
|------------|-^5----*|
|------------|-^6----*|
|------------|-^7----*|
|-2----------|-^0----*|
|------------|-------*|


Duration Legend
---------------
W - whole; H - half; Q - quarter; E - 8th; S - 16th; T - 32nd; X - 64th; a - acciaccatura
+ - note tied to previous; . - note dotted; .. - note double dotted
Uncapitalized letters represent notes that are staccato (1/2 duration)
Irregular groupings are notated above the duration line
Duration letters will always appear directly above the note/fret number it represents the
duration for.  Duration letters with no fret number below them represent rests.  Multi-
bar rests are notated in the form Wxn, where n is the number of bars to rest for.  Low
melody durations appear below the staff

Tablature Legend
----------------
 h   - hammer-on
 p   - pull-off
 b   - bend
 pb  - pre-bend
 r   - bend release (if no number after the r, then release immediately)
 /\  - slide into or out of (from/to "nowhere")
 s   - legato slide
 S   - shift slide
  - natural harmonic
[n]  - artificial harmonic
n(n) - tapped harmonic
 ~   - vibrato
 tr  - trill
 T   - tap
 TP  - trem. picking
 PM  - palm muting
\n/  - tremolo bar dip; n = amount to dip
 \n  - tremolo bar down
 n/  - tremolo bar up
/n\  - tremolo bar inverted dip
 =   - hold bend; also acts as connecting device for hammers/pulls
 <>  - volume swell (louder/softer)
 x   - on rhythm slash represents muted slash
 o   - on rhythm slash represents single note slash

Misc Legend
-----------
 |  - bar
||  - double bar
||o - repeat start
o|| - repeat end
*|  - double bar (ending)
 :  - bar (freetime)
 $  - Segno
 &  - Coda
Tempo markers -  = BPM(8/16=s8/s16), where s8 = swing 8ths, s16 = swing 16ths


*****************************************************************************
* Generated using Power Tab Editor by Brad Larsen - http://powertab.guitarnetwork.org *
*****************************************************************************
Tap to rate this tab
# A B C D E F G H I J K L M N O P Q R S T U V W X Y Z