Song name
# A B C D E F G H I J K L M N O P Q R S T U V W X Y Z

John Williams - Star Wars Imperial March tab

I tabbed the imperial march from star wars theme...

have fun! :)


Tune all guitars down 1 full step (D G C F A D)
1)
F--------------------------
C--------------------------
G--6--------6----9-6----9-6
D--4--4-4-4-4--0-7-4--0-7-4
     pm....    .      .

2)
F--------------------------
C--8--------8--9-----------
G--6--6-6-6-6--7-9-6----9-6
D----------------7-4--0-7-4
     pm....           .


3)              AH
F------------------------------------------------------------
C--13--------------12--10\9/10---7-------------4-------------
G--11-----------11-10--8-\7/8--7-5--11-9\8/9-5-2---9-6----9-6
D------11-11-11----------------5----9--7\6/7-3---0-7-4--0-7-4
      pm.......                                  .      .
Tap to rate this tab
# A B C D E F G H I J K L M N O P Q R S T U V W X Y Z