Song name
# A B C D E F G H I J K L M N O P Q R S T U V W X Y Z

John Williams - Star Wars Darth Vader Theme tab

e|-------------------|--------------------------|-------------------|------|
B|-------------------|--------------------------|-------------------|------|
G|-------------------|--------------------------|-2-----3-2-1-0---0-|------|
D|-------------------|-2-2-2-3-0----------------|---0-0---------4---|------|
A|-0-0-0---3-0---3-0-|-----------3---3-0--------|-------------------|------|
E|-------1-----1-----|-------------1------------|-------------------|------|

e|---------------|------------------||-------------------------------------|
B|---------------|------------------||-------------------------------------|
G|---------------|------------------||-------------------------------------|
D|-0-5-4-3-2-1-2-|------------------||-------------------------------------|
A|---------------|---0---3-0---3-0--||-------------------------------------|
E|---------------|-1---1-----1------||-------------------------------------|
Tap to rate this tab
# A B C D E F G H I J K L M N O P Q R S T U V W X Y Z