Song name
# A B C D E F G H I J K L M N O P Q R S T U V W X Y Z

John Williamson - Little Girl From The Dryland tab

      Little Girl From the Dryland
      -John Williamson-

Tabbed by Jacko

Hey guys this is my first published tab, but im sure its 99.9% correct.
	This song is done in  standard E with a capo on the first fret.
I'd love some feedback or corrections if needed, so feel free.
Its not a hard song so just have fun and enjoy.

	Tuning: E (standard)
	Capo 1st fret (everything is tabbed relative to the capo)


	    D* 		 Esus		   Esus*		 Esus2
	---3---		-------		-------		-------|
	---o---		-------		-------		-------|
	---2---		---2---		---2---		---2---|
	---2---		---2---		---2---		---2---|
	---0---		-------		-------		-------|
	-------		-------		---3---		---2---|

	   F		     G		     C
	-------		---3---		-------|
	---1---		-------		---1---|
	---2---		-------		-------|
	---3---		---2---		---2---|
	-------		---3---		---3---|
	-------		-------		-------|

Intro

	D*		D*  (played twice with the creaking in backround)
----------------3--------------------------------3--|
------------0---------------------------------0-----|
--------2---------------------------------2---------|
-----2--------------------------------2-------------|
--0--------------------------------0----------------|
----------------------------------------------------|

2nd half of intro
verse
Esus						                           Esus*

----------------------------------------------------------------------------------------|
----------0-----------------------0----------------------0-----------------------0------|
---2--------2-----2-------2--------2----2--------2--------2-----2------2---------2---2--|
------2--------2-------------2--------2--------------2--------2-------------2-------2---|
-0---------------------0----------------------------------------------------------------|
------------------------------------------------3----------------------3----------------|


Esus2						                          Esus

-----------------------------------------------------------------------------------------|
----------0------------------------0-----------------------0--------------------0--------|
-----2------2----2---------2--------2----2--------2---------2----2-----2---------2----2--|
-------2------2---------------2--------2-------------2---------2-----------2---------2---|
--------------------------------------------------0--------------------0-----------------|
-2--------------------2------------------------------------------------------------------|

chorus
v downstroke
^ upstroke
strum chorus with a-  v  v  ^  ^  v  ^ pattern


|F                  |G		                 |C		                |C
|v  v  ^  ^  v  ^   |v  v  ^  ^  v  ^   |v  v  ^  ^  v  ^  |v  v  ^  ^  v  ^  repeatx2

3rd time
strum half chorus then straight back into verse picking

|F                  |G                  |   VERSE     (Esus picking)
|v  v  ^  ^  v  ^   |v  v  ^  ^  v  ^   |
Tap to rate this tab
# A B C D E F G H I J K L M N O P Q R S T U V W X Y Z