Song name
# A B C D E F G H I J K L M N O P Q R S T U V W X Y Z

John Williamson - Diamantina Drover tab

  C               G               Am
  1       2       3       4       1       2       3       4
E|----------------------------------------------------------------|
B|1-----------1/3 3-----------3---------------0---0-0/1-0---------|
G|--------0---------------0-------2-------2---------------2-------|
D|----2---------------0---------------2----------------------2----|
A|3-------------------------------0------------------0------------|
E|----------------3-----------------------------------------------|

  C               G               Am
  1       2       3       4       1       2       3       4
E|----------------------------------------------------------------|
B|1-----------1/3 3-----------3---------------0---0-0/1-0---------|
G|--------0---------------0-------2-------2---------------2-------|
D|----2---------------0---------------2----------------------2----|
A|3-------------------------------0------------------0------------|
E|----------------3-----------------------------------------------|
Tap to rate this tab
# A B C D E F G H I J K L M N O P Q R S T U V W X Y Z