Song name
# A B C D E F G H I J K L M N O P Q R S T U V W X Y Z

Johnathan Rice - Not Right Now tab

listen for strumming

Intro/verse

e|--7-----7------------|
B|--7-----9------------|
G|--8-----9------------|
D|--9-----9------------|
A|--9-----7------------|
E|--7-----0------------|

Chorus

e|--0-----7------------|
B|--0-----7------------|
G|--1-----8------------|
D|--2-----9------------|
A|--2-----9------------|
E|--0-----7------------|

feel free to add your fourth finger to the second fret of the high e string at the end 
playing the E chord in the chorus
Tap to rate this tab
 
# A B C D E F G H I J K L M N O P Q R S T U V W X Y Z