Song name
# A B C D E F G H I J K L M N O P Q R S T U V W X Y Z

Johnny And The Hurricanes - Rough Road tab

rest in peace Johnny Paris


           "ROUGH ROAD" by Johnny & the Hurricanes
intro:
|--------------------|------------------------------------------|
|--------------------|------------------------------------------|
|---4--4--2----------|------------------------------------------|
|-----------4--2-----|-----------4-4--6-4-------------4-4--6-4--|
|-----------------5--|--2-2--5-5------------2-2--5-5------------|
|--------------------|------------------------------------------|
main riff:
|-----------------------|------------------------------------------|
|-----------------------|------------------------------------------|
|---4--4--4--2----------|------------------------------------------|
|--------------4--2-----|-----------4-4--6-4-------------4-4--6-4--|
|--------------------5--|--2-2--5-5------------2-2--5-5------------|
|-----------------------|------------------------------------------|

|-----------------------|------------------------------------------|
|-----------------------|------------------------------------------|
|---4--4--4--2----------|------------4-4--6-4------4-4--6-4--------|
|--------------4--2-----|--2-2--5-5------------2-2-----------------|
|--------------------5--|------------------------------------------|
|-----------------------|------------------------------------------|


|------------------------|------------------------------------------|
|---5--5--5--3-----------|------------------------------------------|
|---------------4--2-----|------------------------------------------|
|---------------------4--|------------4-4--6-4------------4-4--6-4--|
|------------------------|--2-2--5-5------------2-2--5-5------------|
|------------------------|------------------------------------------|

|-----------------------|------------------------------------------|
|-----------------------|------------------------------------------|
|---4--4--4--2----------|------------------------------------------|
|--------------4--2-----|-----------4-4--6-4-------------4-4--6-4--|
|--------------------5--|--2-2--5-5------------2-2--5-5------------|
|-----------------------|------------------------------------------|

|------------------------|-------------------------------------------|
|---7--7--7--5-----------|-------------------------------------------|
|---------------6--4-----|-------------------------------------------|
|---------------------6--|-------------4-4--6-4------------4-4--6-4--|
|------------------------|--2-2--5-5-------------2-2--5-5------------|
|------------------------|-------------------------------------------|

|-----------------------|------------------------------------------|
|-----------------------|------------------------------------------|
|---4--4--4--2----------|------------------------------------------|
|--------------4--2-----|-----------4-4--6-4-------------4-4--6-4--|
|--------------------5--|--2-2--5-5------------2-2--5-5------------|
|-----------------------|------------------------------------------|

and then start over with the main riff

-bert
Tap to rate this tab
# A B C D E F G H I J K L M N O P Q R S T U V W X Y Z