Johnny And The Hurricanes - Red River Rock tab

Red River Rock:Johnny And The Hurricanes.
Lead inst. was a Farfisa Organ. #3 in UK & #5 in USA in 1959.

***(I tabbed it in key of A. Original was key of C.

(Capo 3th fret. in A for orig.)

----------------------------------------------------------------|
----------------------------------------------------------------|
----------------------------------------------------------------|
-----------------------------------------------2-4-2-0----------|
----0--4-4-4-4--2-2--4-4--2-0-------0--4-0-4------------4-2-----|
--0--------------------------------0----------------------------|


-----------------------------------------------------------------|
-----------------------------------------------------------------|
--2-0---------------2-0-----------0------------------------------|
------4-4-2-0-2-4--------0-2-4-4----4-4-2-0----------------------|
-----------------------------------------------------------------|
-----------------------------------------------------------------|

(INTERLUDE:GUITAR:) A E A D A E A


----------------------------------------------------------------|
----------------------------------------------------------------|
----------------------------------------------------------------|
-----------------------------------------------2-4-2-0----------|
----0--4-4-4-4--2-2--4-4--2-0-------0--4-0-4------------4-2-----|
--0--------------------------------0----------------------------|


-----------------------------------------------------------------|
-----------------------------------------------------------------|
--2-0---------------2-0-----------0------------------------------|
------4-4-2-0-2-4--------0-2-4-4----4-4-2-0----------------------|
-----------------------------------------------------------------|
-----------------------------------------------------------------|

(FADE:)
----------------------------------------------------------------|
----------------------------------------------------------------|
----------------------------------------------------------------|
-----------------------------------------------2-4-2-0----------|
----0--4-4-4-4--2-2--4-4--2-0-------0--4-0-4------------4-2-----|
--0--------------------------------0----------------------------|


A fifties smash from Kraziekhat.
Tap to rate this tab
 
# A B C D E F G H I J K L M N O P Q R S T U V W X Y Z