Song name
# A B C D E F G H I J K L M N O P Q R S T U V W X Y Z

Johnny Bond - Hot Rod Lincoln tab

e-------------------------------------------------------------------------|
B-------------------------------------------------------------------------|
G-------------------------------------------------------------------------|
D------------------------------------------------2-2-4-4-5-5-4-5-4-2---2--|
A---------------2-2-4-4-5-5-4-5-4-2---2--0-0-4-4---------------------4----|
E-2(b)-0-0-4-4----------------------4-------------------------------------|

e-------------------------------------------------------------------------|
B-------------------------------------------------------------------------|
G-------------1-1-2-2-1-2-1--------2-2-----2-2-----2-2--------------------|
D-----1-1-4-4---------------4-1-4------4-4-----4-4-----4------------------|
A-2-2---------------------------------------------------------------------|
E-------------------------------------------------------------------------|
Tap to rate this tab
 
# A B C D E F G H I J K L M N O P Q R S T U V W X Y Z