Song name
# A B C D E F G H I J K L M N O P Q R S T U V W X Y Z

Johnny Cage Is A Fake - Niggaplease tab

www.myspace.com/johnnycageisafake
www.purevolume.com/johnnycageisafake
www.last.fm/music/Johnny+Cage+is+a+Fake

#----------------------------------PLEASE NOTE---------------------------------#
#This file is the author's own work and represents their interpretation of the #
#song. You may only use this file for private study, scholarship, or research. #
#------------------------------------------------------------------------------#

NIGGAPLEASE
As recorded by Johnny Cage Is A Fake
(From the 2005 Album JOHNNY CAGE IS A FAKE)

Transcribed by Jonathan Rose
	

Words and Music by Johnny Cage Is A Fake

Gtr I (D A D G B E) - 'Dean (Left Channel)'
Gtr II (D A D G B E) - 'Dean (Right Channel)'

   "When will this end?"
    Poorcore Q=182
    D+sus2
   4/4
    Gtr I
    H    H      W          H    H      W
||------------|----------|-----------|-------||
||o-----------|----------|-----------|------o||
||--3---------|----------|-3---------|-------||
||--2---------|----------|-2---------|-------||
||o-1---------|----------|-1---------|------o||
||--0---------|----------|-0---------|-------||


    Gtrs I, II
    H    H      H    H      H    H      H    H
||------------|-----------|-----------|------------||
||o-----------|-----------|-----------|-----------o||
||--3---------|-3---------|-3---------|-3----------||
||--2---------|-2---------|-2---------|-2----------||
||o-1---------|-1---------|-1---------|-1---------o||
||--0---------|-0---------|-0---------|-0----------||


 "No smile on my face.."
  A Little Slower Q=180
  N.C.
   Q   H.         Q   H.         Q   H.         Q   H.
|--------------|--------------|--------------|------------|
|-----11-------|-----11-------|-----11-------|-----11-----|
|-14-----------|-14-----------|-14-----------|-14---------|
|--------------|--------------|--------------|------------|
|--------------|--------------|--------------|------------|
|--------------|--------------|--------------|------------|


   Q   H.         Q   H.         Q   H.         W
|--------------|--------------|--------------|-------|
|-----11-------|-----11-------|-----11-------|-------|
|-14-----------|-14-----------|-14-----------|-14----|
|--------------|--------------|--------------|-------|
|--------------|--------------|--------------|-------|
|--------------|--------------|--------------|-------|


  Much Faster Q=222
                     Bb5  N.C.               Bb5
  Gtr II
              |-3--|                  |-3--|
  E  a  E E E E  E E Q    E  a  E E E E  E E Q
|-----------------------|-----------------------|
|-----------------------|-----------------------|
|-----------------------|-----------------------|
|-8-(8)s9---------------|-8-(8)s9---------------|
|---------8h9-9h10p8-8--|---------8h9-9h10p8-8--|
|--------------------9--|--------------------9--|


  N.C.               Bb5  N.C.               Bb5
              |-3--|                  |-3--|
  E  a  E E E E  E E Q    E  a  E E E E  E E Q
|-----------------------|-----------------------||
|-----------------------|-----------------------||
|-----------------------|-----------------------||
|-8-(8)s9---------------|-8-(8)s9---------------||
|---------8h9-9h10p8-8--|---------8h9-9h10p8-8--||
|--------------------9--|--------------------9--||


 "I am a liar, please take..."
  Slower Q=202
  N.C.              Ab5  N.C.              Ab5
  Gtrs I, II
              |-3-|                  |-3-|
  E  a  E E E E E E Q    E  a  E E E E E E Q
|----------------------|----------------------|
|----------------------|----------------------|
|----------------------|----------------------|
|-6-(6)s7--------------|-6-(6)s7--------------|
|---------6h7-7h8p6-6--|---------6h7-7h8p6-6--|
|-------------------7--|-------------------7--|


  N.C.              Ab5  N.C.              Ab5
              |-3-|                  |-3-|
  E  a  E E E E E E Q    E  a  E E E E E E Q
|----------------------|----------------------|
|----------------------|----------------------|
|----------------------|----------------------|
|-6-(6)s7--------------|-6-(6)s7--------------|
|---------6h7-7h8p6-6--|---------6h7-7h8p6-6--|
|-------------------7--|-------------------7--|


  N.C.              G#b5 N.C.              G#b5
              |-3-|                  |-3-|
  E  a  E E E E E E Q    E  a  E E E E E E Q
|----------------------|----------------------|
|----------------------|----------------------|
|----------------------|----------------------|
|-6-(6)s7--------------|-6-(6)s7--------------|
|---------6h7-7h8p6-5--|---------6h7-7h8p6-5--|
|-------------------6--|-------------------6--|


  N.C.              G#b5 N.C.              G#b5
              |-3-|                  |-3-|
  E  a  E E E E E E Q    E  a  E E E E E E Q
|----------------------|----------------------|
|----------------------|----------------------|
|----------------------|----------------------|
|-6-(6)s7--------------|-6-(6)s7--------------|
|---------6h7-7h8p6-5--|---------6h7-7h8p6-5--|
|-------------------6--|-------------------6--|


  N.C.               Bb5  N.C.               Bb5
  Gtr I
              |-3--|                  |-3--|
  E  a  E E E E  E E Q    E  a  E E E E  E E Q
|-----------------------|-----------------------|
|-----------------------|-----------------------|
|-----------------------|-----------------------|
|-8-(8)s9---------------|-8-(8)s9---------------|
|---------8h9-9h10p8-8--|---------8h9-9h10p8-8--|
|--------------------9--|--------------------9--|


  N.C.               Bb5  N.C.               Bb5
              |-3--|                  |-3--|
  E  a  E E E E  E E Q    E  a  E E E E  E E Q
|-----------------------|-----------------------|
|-----------------------|-----------------------|
|-----------------------|-----------------------|
|-8-(8)s9---------------|-8-(8)s9---------------|
|---------8h9-9h10p8-8--|---------8h9-9h10p8-8--|
|--------------------9--|--------------------9--|


    N.C.              Db5  N.C.              Db5
    Gtrs I, II
                |-3-|                  |-3-|
    E  a  E E E E E E Q    E  a  E E E E E E Q
||-----------------------|----------------------|
||o----------------------|----------------------|
||--------------------7--|-------------------7--|
||--6-(6)s7-----------6--|-6-(6)s7-----------6--|
||o---------6h7-7h8p6-5--|---------6h7-7h8p6-5--|
||-----------------------|----------------------|


  N.C.              Db5  N.C.              Db5
              |-3-|                  |-3-|
  E  a  E E E E E E Q    E  a  E E E E E E Q
|----------------------|-------------------------||
|----------------------|------------------------o||
|-------------------7--|-------------------7-----||
|-6-(6)s7-----------6--|-6-(6)s7-----------6-----||
|---------6h7-7h8p6-5--|---------6h7-7h8p6-5----o||
|----------------------|-------------------------||


  N.C.              F#b5 N.C.              F#b5
              |-3-|                  |-3-|
  E  a  E E E E E E Q    E  a  E E E E E E Q
|----------------------|----------------------|
|-------------------7--|-------------------7--|
|-------------------5--|-------------------5--|
|-3-(3)s4-----------4--|-3-(3)s4-----------4--|
|---------3h4-4h5p3----|---------3h4-4h5p3----|
|----------------------|----------------------|


  N.C.              F#b5 N.C.              F#b5
              |-3-|                  |-3-|
  E  a  E E E E E E Q    E  a  E E E E E E Q
|----------------------|----------------------||
|-------------------7--|-------------------7--||
|-------------------5--|-------------------5--||
|-3-(3)s4-----------4--|-3-(3)s4-----------4--||
|---------3h4-4h5p3----|---------3h4-4h5p3----||
|----------------------|----------------------||


   "...because.."
    Slower Q=182
    D5    G#bGb5   D5  Eb5   D5   G#b5  D5    G#bGb5   D5  Eb5   D5   G#b5
   3/4
       PM                                  PM
     E Q   E  Q     Q  a +E   a E  Q     E Q   E  Q     Q  a +E   a E  Q    4x
||---------------|--------------------|--------------|----------------------||
||o--------------|--------------------|--------------|---------------------o||
||--------13-12--|----------------13--|-------13-12--|----------------13----||
||--12----12-11--|-12s=1-(1)s12---12--|-12----12-11--|-12s=1-(1)s12---12----||
||o-12-0--11-10--|-12s=1-(1)s12---11--|-12-0--11-10--|-12s=1-(1)s12---11---o||
||--12-0---------|-12s=1-(1)s12-------|-12-0---------|-12s=1-(1)s12---------||


    D5    G#bGb5   D5  Eb5   D5   G#b5  D5    G#bGb5   D5  Eb5   D5   G#b5
       PM                                  PM
     E Q   E  Q     Q  a +E   a E  Q     E Q   E  Q     Q  a +E   a E  Q
||---------------|--------------------|--------------|---------------------||
||o--------------|--------------------|--------------|--------------------o||
||--------13-12--|----------------13--|-------13-12--|----------------13---||
||--12----12-11--|-12s=1-(1)s12---12--|-12----12-11--|-12s=1-(1)s12---12---||
||o-12-0--11-10--|-12s=1-(1)s12---11--|-12-0--11-10--|-12s=1-(1)s12---11--o||
||--12-0---------|-12s=1-(1)s12-------|-12-0---------|-12s=1-(1)s12--------||


   "We spend our lives.."
    N.C.  G#b5N.C.  G#b5  N.C.  G#b5N.C.  G#b5
   4/4
     PM|       PM|         PM|       PM|
     E  E  Q   E  E  Q     E  E  Q   E  E  Q
||----------------------|---------------------|
||o---------------------|---------------------|
||--------13--------13--|-------13--------13--|
||--------12--------12--|-------12--------12--|
||o-11-11-11--11-11-11--|-11-11-11--11-11-11--|
||----------------------|---------------------|


  N.C.  G#b5N.C.  G#b5  N.C.  G#b5N.C.  G#b5
   PM|       PM|         PM|       PM|
   E  E  Q   E  E  Q     E  E  Q   E  E  Q
|---------------------|-----------------------||
|---------------------|----------------------o||
|-------13--------13--|-------13--------13----||
|-------12--------12--|-------12--------12----||
|-11-11-11--11-11-11--|-11-11-11--11-11-11---o||
|---------------------|-----------------------||


    N.C.    G#b5      N.C.    G#b5      N.C.    G#b5      N.C.    G#b5
   6/8
     PM|               PM|               PM|               PM|
     E  E E  E  E E    E  E E  E  E E    E  E E  E  E E    E  E E  E  E E
||------------------|-----------------|-----------------|------------------||
||o-----------------|-----------------|-----------------|-----------------o||
||----------13-13---|---------13-13---|---------13-13---|---------13-13----||
||----------12-12---|---------12-12---|---------12-12---|---------12-12----||
||o-11-11---11-11---|-11-11---11-11---|-11-11---11-11---|-11-11---11-11---o||
||------------------|-----------------|-----------------|------------------||


  N.C.    G#b5      N.C.    G#b5      N.C.    G#b5      N.C.    G#b5
  Gtr I
   PM|               PM|               PM|               PM|
   E  E E  E  E E    E  E E  E  E E    E  E E  E  E E    E  E E  E  E E
|-----------------|-----------------|-----------------|-----------------||
|-----------------|-----------------|-----------------|-----------------||
|---------13-13---|---------13-13---|---------13-13---|---------13-13---||
|---------12-12---|---------12-12---|---------12-12---|---------12-12---||
|-11-11---11-11---|-11-11---11-11---|-11-11---11-11---|-11-11---11-11---||
|-----------------|-----------------|-----------------|-----------------||


   "You mistake me for.."
    Slower Q=170
    D5    N.C.          D5    N.C.
   3/4
    Gtrs I, II
    PM|           ~~~~  PM--|           ~~~~
                        |-3-|
    E E E  E     +Q     Q Q Q  E       +E
||--------------------|--------------------|
||o-------------------|--------------------|
||--------11b12r(11)--|-------11b11.5r(11)-|
||--------------------|--------------------|
||o-0-0---------------|-0-0-0--------------|
||--0-0---------------|-0-0-0--------------|


  D5    N.C.          D5  N.C.
  PM|           ~~~~  PM|
  E E E  E     +Q     E E  Q   +E       +S   +S    4x
|-------------------|------------------------------||
|-------------------|-----------------------------o||
|-------11b12r(11)--|-----14--(14)b15==(14)-(14)r--||
|-------------------|------------------------------||
|-0-0---------------|-0-0-------------------------o||
|-0-0---------------|-0-0--------------------------||


  Slower Q=148
  D5      Bbb5  D5      Bbb5  D5      Bbb5  D5      Bbb5
 9/16
  Gtr II
  PM--|         PM--|         PM--|         PM--|
  S S E S  Q    S S E S  Q    S S E S  Q    S S E S  Q
|-------------|-------------|-------------|-------------||
|-------------|-------------|-------------|-------------||
|---------15--|---------15--|---------15--|---------15--||
|---------14--|---------14--|---------14--|---------14--||
|-0-0-0---13--|-0-0-0---13--|-0-0-0---13--|-0-0-0---13--||
|-0-0-0-------|-0-0-0-------|-0-0-0-------|-0-0-0-------||


   "So sick and tired.."
    D5      Bbb5  D5      Bbb5  D5      Bbb5  D5      Bbb5
    Gtrs I, II
    PM--|         PM--|         PM--|         PM--|
    S S E S  Q    S S E S  Q    S S E S  Q    S S E S  Q
||--------------|-------------|-------------|--------------||
||o-------------|-------------|-------------|-------------o||
||----------15--|---------15--|---------15--|---------15---||
||----------14--|---------14--|---------14--|---------14---||
||o-0-0-0---13--|-0-0-0---13--|-0-0-0---13--|-0-0-0---13--o||
||--0-0-0-------|-0-0-0-------|-0-0-0-------|-0-0-0--------||


  D5      Gb5   D5      Gb5   D5      Gb5   D5      Gb5
  PM--|         PM--|         PM--|         PM--|
  S S E S  Q    S S E S  Q    S S E S  Q    S S E S  Q
|-------------|-------------|-------------|-------------||
|-------------|-------------|-------------|-------------||
|---------12--|---------12--|---------12--|---------12--||
|---------11--|---------11--|---------11--|---------11--||
|-0-0-0---10--|-0-0-0---10--|-0-0-0---10--|-0-0-0---10--||
|-0-0-0-------|-0-0-0-------|-0-0-0-------|-0-0-0-------||


 "Don't lie.."
  D5    BbbD5     Bbb5     D5    BbbD5
 3/4             4/4
  PM--|    PM              PM--|    PM
  S S E  E Q.      S  S  E S S E  E Q.
|---------------|------------------------|
|---------------|------------------------|
|-------15------|-15-15-15-------15------|
|-------14------|-14-14-14-------14------|
|-0-0-0-13-0----|-13-13-13-0-0-0-13-0----|
|-0-0-0----0----|----------0-0-0----0----|


  Bbb5     D5    BbbD5     Bbb5     D5    BbbD5
           PM--|    PM              PM--|    PM
   S  S  E S S E  E Q.      S  S  E S S E  E Q.
|------------------------|------------------------||
|------------------------|------------------------||
|-15-15-15-------15------|-15-15-15-------15------||
|-14-14-14-------14------|-14-14-14-------14------||
|-13-13-13-0-0-0-13-0----|-13-13-13-0-0-0-13-0----||
|----------0-0-0----0----|----------0-0-0----0----||


 "This pressure stops.."
  Bbb5     D5   N.C.                    D5 N.C.        D5
 2/4           4/4
           PM                           PM             PM
   S  S  E Q     E  E  E  E  E  E  Q    Q   E  E  E  E Q
|-------------|-----------------------|-------------------|
|-------------|-12-12-12-12-12-12-11--|----12-12-12-13----|
|-15-15-15----|-15-15-15-15-15-15-14--|----15-15-15-16----|
|-14-14-14----|-----------------------|-------------------|
|-13-13-13-0--|-----------------------|-0--------------0--|
|----------0--|-----------------------|-0--------------0--|


  N.C.                    D5 N.C.        D5
                          PM             PM
   E  E  E  E  E  E  Q    Q   E  E  E  E Q
|-----------------------|---------------------|
|-12-12-12-12-12-12-11--|----12-12-12-13------|
|-15-15-15-15-15-15-14--|----15-15-15-16------|
|-----------------------|---------------------|
|-----------------------|-0--------------0----|
|-----------------------|-0--------------0----|


  N.C.                    D5 N.C.        D5
                          PM             PM
   E  E  E  E  E  E  Q    Q   E  E  E  E Q
|-----------------------|-------------------|
|-12-12-12-12-12-12-11--|----12-12-12-13----|
|-15-15-15-15-15-15-14--|----15-15-15-16----|
|-----------------------|-------------------|
|-----------------------|-0--------------0--|
|-----------------------|-0--------------0--|


  N.C.                    D5 N.C.
                         5/4
                          PM
   E  E  E  E  E  E  Q    Q   E  E  E  E H
|-----------------------|---------------------||
|-12-12-12-12-12-12-11--|----12-12-12-13------||
|-15-15-15-15-15-15-14--|----15-15-15-16------||
|-----------------------|---------------------||
|-----------------------|-0-------------------||
|-----------------------|-0-------------------||


 Free Jam
  Freely Q=148
  D    Dadd11             D  DaddD1  Dadd11D
 4/4
  H     E  E  E  E    +E   E  Q   Q   Q
|------------------|---------------------|
|-------8--8--8--8-|--(8)-----8-------8--|
|------11-11-11-11-|-(11)-11-11--11--11--|
|-0-----0--0--0--0-|--(0)--0--0---0---0--|
|-9-----9--9--9--9-|--(9)--9--9---9---9--|
|-0-----0--0--0--0-|--(0)--0--0---0---0--|


       Dadd11             D  DaddD1D  DsN.C.
  H     E  E  E  E    +E   E  Q  E  E E E
|------------------|----------------------|
|-------8--8--8--8-|--(8)-----8-----------|
|------11-11-11-11-|-(11)-11-11----11-9-6-|
|-0-----0--0--0--0-|--(0)--0--0--0--0-0-0-|
|-9-----9--9--9--9-|--(9)--9--9--9--9-7-4-|
|-0-----0--0--0--0-|--(0)--0--0--0--0-0-0-|


                Bm/D         N.C.             DsN.C.
                                                       3/4
  +Q   E E E Q  E   E E Q  E E Q    E E E E E E  E  E    E  E  Q   Q
|-----------------|---------------|-------------------|---------------|
|-----------------|---------------|-------------15-15-|-15----15------|
|-(6)--6-6-6-6--4-|-4-4-4--4s6----|-7-7-7-7-7s9-------|----18-----18--|
|-(0)--0-0-0-0--0-|-0-0-0--0-0-0--|-0-0-0-0-0-0-------|---------------|
|-(4)--4-4-4-4--2-|-2-2-2--2s4-4--|-5-5-5-5-5s7-------|---------------|
|-(0)--0-0-0-0--0-|-0-0-0--0-0-0--|-0-0-0-0-0-0-------|---------------|


  D    Dadd11             D  Dadd11
 4/4
  H     E  E  E  E    +E   E  Q.    E  E  E
|------------------|------------------------|
|-------8--8--8--8-|--(8)-----8-----8--8--8-|
|------11-11-11-11-|-(11)-11-11----11-11-11-|
|-0-----0--0--0--0-|--(0)--0--0-----0--0--0-|
|-9-----9--9--9--9-|--(9)--9--9-----9--9--9-|
|-0-----0--0--0--0-|--(0)--0--0-----0--0--0-|


  D    Dadd11             D  Dadd11
  H     E  E  E  E    +E   E  Q   E  E  Q
|------------------|-----------------------|
|-------8--8--8--8-|--(8)-----8---8--8--8--|
|------11-11-11-11-|-(11)-11-11--11-11-11--|
|-0-----0--0--0--0-|--(0)--0--0---0--0--0--|
|-9-----9--9--9--9-|--(9)--9--9---9--9--9--|
|-0-----0--0--0--0-|--(0)--0--0---0--0--0--|


  N.C.               Bm/D       N.C.
  H    E E E E   +E  E E E Q  E E   E +Q   E Q.   E
|--------------|------------------|-----------------|
|--------------|------------------|-----------------|
|-6----6-6-6-6-|-(6)-4-4-4-4--4s6-|-7-(7)----7----7-|
|-0----0-0-0-0-|-(0)-0-0-0-0--0-0-|-0-(0)--0-0----0-|
|-4----4-4-4-4-|-(4)-2-2-2-2--2s4-|-5-(5)--5-5----5-|
|-0----0-0-0-0-|-(0)-0-0-0-0--0-0-|-0-(0)--0-0----0-|


 3/4
   E  E  Q   +E         +S   +S
|----------------------------------|
|-15-15-15--(15)b15.5==(15)-(15)r--|
|----------------------------------|
|----------------------------------|
|----------------------------------|
|----------------------------------|


  D    Dadd11             D  Dadd11
 4/4
  H     E  E  E  E    +E   E  Q   E  E  Q
|------------------|-----------------------|
|-------8--8--8--8-|--(8)-----8---8--8--8--|
|------11-11-11-11-|-(11)-11-11--11-11-11--|
|-0-----0--0--0--0-|--(0)--0--0---0--0--0--|
|-9-----9--9--9--9-|--(9)--9--9---9--9--9--|
|-0-----0--0--0--0-|--(0)--0--0---0--0--0--|


  D    Dadd11             D  Dadd11
  H     E  E  E  E    +E   E  Q   E  E  E  E
|------------------|-------------------------|
|-------8--8--8--8-|--(8)-----8---8--8--8--8-|
|------11-11-11-11-|-(11)-11-11--11-11-11-11-|
|-0-----0--0--0--0-|--(0)--0--0---0--0--0--0-|
|-9-----9--9--9--9-|--(9)--9--9---9--9--9--9-|
|-0-----0--0--0--0-|--(0)--0--0---0--0--0--0-|


  N.C.
  H    E E E E   +E  E Q  E E E E
|--------------|------------------|
|--------------|------------------|
|-6----6-6-6-6-|-(6)-6-6--6-6-6-6-|
|-0----0-0-0-0-|-(0)-0-0--0-0-0-0-|
|-4----4-4-4-4-|-(4)-4-4--4-4-4-4-|
|-0----0-0-0-0-|-(0)-0-0--0-0-0-0-|


                  TP  TP  TP
  Q  E E Q  Q     Q   Q   Q   E        +S   +S
|--------------|---------------------------------|
|--------------|-12--12--14--16b16.5==(16)-(16)r-|
|-7--7-7-7--7--|---------------------------------|
|-0--0-0-0--0--|---------------------------------|
|-5--5-5-5--5--|---------------------------------|
|-0--0-0-0--0--|---------------------------------|


  D    Dadd11             D  Dadd11
  H     E  E  E  E    +E   E  Q.    E  E  E
|------------------|------------------------|
|-------8--8--8--8-|--(8)-----8-----8--8--8-|
|------11-11-11-11-|-(11)-11-11----11-11-11-|
|-0-----0--0--0--0-|--(0)--0--0-----0--0--0-|
|-9-----9--9--9--9-|--(9)--9--9-----9--9--9-|
|-0-----0--0--0--0-|--(0)--0--0-----0--0--0-|


  D    Dadd11             D  Dadd11
  H     E  E  E  E    +E   E  Q   E  E  E  E
|------------------|--------------------------|
|-------8--8--8--8-|--(8)-----8---8--8--8--8--|
|------11-11-11-11-|-(11)-11-11--11-11-11-11--|
|-0-----0--0--0--0-|--(0)--0--0---0--0--0--0--|
|-9-----9--9--9--9-|--(9)--9--9---9--9--9--9--|
|-0-----0--0--0--0-|--(0)--0--0---0--0--0--0--|


  N.C.
  H    E E E E   +E  E Q  E E E E   Q  E E Q  Q
|--------------|------------------|--------------|
|--------------|------------------|--------------|
|-6----6-6-6-6-|-(6)-6-6--6-6-6-6-|-7--7-7-7--7--|
|-0----0-0-0-0-|-(0)-0-0--0-0-0-0-|-0--0-0-0--0--|
|-4----4-4-4-4-|-(4)-4-4--4-4-4-4-|-5--5-5-5--5--|
|-0----0-0-0-0-|-(0)-0-0--0-0-0-0-|-0--0-0-0--0--|


   E  E  E  E  E  +Q          +S   +S
|---------------------------------------|
|-12-12-12-12-14-(14)b14.5===(14)-(14)r-|
|---------------------------------------|
|---------------------------------------|
|---------------------------------------|
|---------------------------------------|


  D    Dadd11             D  Dadd11
  H     E  E  E  E    +E   E  Q   E  E  Q
|------------------|-----------------------|
|-------8--8--8--8-|--(8)-----8---8--8--8--|
|------11-11-11-11-|-(11)-11-11--11-11-11--|
|-0-----0--0--0--0-|--(0)--0--0---0--0--0--|
|-9-----9--9--9--9-|--(9)--9--9---9--9--9--|
|-0-----0--0--0--0-|--(0)--0--0---0--0--0--|


  D    Dadd11             D  Dadd11
  H     E  E  E  E    +E   E  Q   E  E  E  E
|------------------|--------------------------|
|-------8--8--8--8-|--(8)-----8---8--8--8--8--|
|------11-11-11-11-|-(11)-11-11--11-11-11-11--|
|-0-----0--0--0--0-|--(0)--0--0---0--0--0--0--|
|-9-----9--9--9--9-|--(9)--9--9---9--9--9--9--|
|-0-----0--0--0--0-|--(0)--0--0---0--0--0--0--|


  N.C.               Bm/D       N.C.
  H    E E E E   +E  E E E Q  E E   E E E E Q  Q     E  E  E  E  Q  Q
|--------------|------------------|---------------|---------------------|
|--------------|------------------|---------------|-12-12-12-12-12------|
|-6----6-6-6-6-|-(6)-4-4-4-4--4s6-|-7-7-7-7-7--7--|---------------------|
|-0----0-0-0-0-|-(0)-0-0-0-0--0-0-|-0-0-0-0-0--0--|---------------------|
|-4----4-4-4-4-|-(4)-2-2-2-2--2s4-|-5-5-5-5-5--5--|---------------------|
|-0----0-0-0-0-|-(0)-0-0-0-0--0-0-|-0-0-0-0-0--0--|---------------------|


  D    Dadd11             D  Dadd11
  H     E  E  E  E    +E   E  Q   E  E  Q
|------------------|-----------------------|
|-------8--8--8--8-|--(8)-----8---8--8--8--|
|------11-11-11-11-|-(11)-11-11--11-11-11--|
|-0-----0--0--0--0-|--(0)--0--0---0--0--0--|
|-9-----9--9--9--9-|--(9)--9--9---9--9--9--|
|-0-----0--0--0--0-|--(0)--0--0---0--0--0--|


  D    Dadd11             D  Dadd11
  H     E  E  E  E    +E   E  Q   E  E  E  E
|------------------|--------------------------|
|-------8--8--8--8-|--(8)-----8---8--8--8--8--|
|------11-11-11-11-|-(11)-11-11--11-11-11-11--|
|-0-----0--0--0--0-|--(0)--0--0---0--0--0--0--|
|-9-----9--9--9--9-|--(9)--9--9---9--9--9--9--|
|-0-----0--0--0--0-|--(0)--0--0---0--0--0--0--|


  N.C.               Bm/D       N.C.
  H    E E E E   +E  E E E Q  E E   E E E E Q  Q     E  E  E  E  Q  Q
|--------------|------------------|---------------|---------------------||
|--------------|------------------|---------------|-12-12-12-12-12------||
|-6----6-6-6-6-|-(6)-4-4-4-4--4s6-|-7-7-7-7-7--7--|---------------------||
|-0----0-0-0-0-|-(0)-0-0-0-0--0-0-|-0-0-0-0-0--0--|---------------------||
|-4----4-4-4-4-|-(4)-2-2-2-2--2s4-|-5-5-5-5-5--5--|---------------------||
|-0----0-0-0-0-|-(0)-0-0-0-0--0-0-|-0-0-0-0-0--0--|---------------------||


 "That's why.."
  BbAbG#AbG#Gb5 BbAbG#AbG#Gb5 BbAbG#AbG#Gb5 BbAbG#AbG#Gb5
 3/4
  PM--------------------------------------------------|
  E E E E E E   E E E E E E   E E E E E E   E E E E E E
|-------------|-------------|-------------|-------------|
|-------------|-------------|-------------|-------------|
|-------------|-------------|-------------|-------------|
|-------------|-------------|-------------|-------------|
|-7-6-5-6-5-4-|-7-6-5-6-5-4-|-7-6-5-6-5-4-|-7-6-5-6-5-4-|
|-8-7-6-7-6-5-|-8-7-6-7-6-5-|-8-7-6-7-6-5-|-8-7-6-7-6-5-|


  BbAbG#AbG#Gb5 BbAbG#AbG#Gb5 BbAbG#AbG#Gb5 BbAbG#AbG#Gb5
  E E E E E E   E E E E E E   E E E E E E   E E E E E E
|-------------|-------------|-------------|-------------|
|-------------|-------------|-------------|-------------|
|-------------|-------------|-------------|-------------|
|-8S7-6S7-6S5-|-8S7-6S7-6S5-|-8S7-6S7-6S5-|-8S7-6S7-6S5-|
|-7S6-5S6-5S4-|-7S6-5S6-5S4-|-7S6-5S6-5S4-|-7S6-5S6-5S4-|
|-8S7-6S7-6S5-|-8S7-6S7-6S5-|-8S7-6S7-6S5-|-8S7-6S7-6S5-|


  Faster Q=160
  N.C.
                                                                    ~~
  Q  a  E  E  Q     Q  a  E  E  Q     Q  a  E  E  Q     Q  a  E  E  Q
|-----------------|-----------------|-----------------|----------------||
|-----------------|-----------------|-----------------|----------------||
|-----------------|-----------------|-----------------|----------------||
|-----------------|-----------------|-----------------|----------------||
|-6--6s13-14-13\--|-6--6s13-14-13\--|-7--7s14-13-14\--|-7--7s14-13-14--||
|-----------------|-----------------|-----------------|----------------||


 "...you see me quietly.."
  D+sD52         BmaD5sus4/D    BmaD5sus4/D    BmaD5sus4/D
     PM----|        PM----|        PM----|        PM----|
     |-3-|          |-3-|          |-3-|          |-3-|
  Q  E E E E E   Q  E E E E E   Q  E E E E E   Q  E E E E E
|--------------|--------------|--------------|--------------|
|--------------|-0------------|-0------------|-0------------|
|-3------------|-3------------|-3------------|-3------------|
|-2------------|-2------------|-2------------|-2------------|
|-1--0-0-0-0---|-1--0-0-0-0---|-1--0-0-0-0---|-1--0-0-0-0---|
|-0--0-0-0-0---|-0--0-0-0-0---|-0--0-0-0-0---|-0--0-0-0-0---|


  BmaD5sus4/D    BmaD5sus4/D    BmaD5sus4/D    N.C. D5
     PM----|        PM----|        PM----|          PM----|
     |-3-|          |-3-|          |-3-|            |-3-|
  Q  E E E E E   Q  E E E E E   Q  E E E E E   Q  a E E E E E
|--------------|--------------|--------------|----------------|
|-0------------|-0------------|-0------------|-1s=5-----------|
|-3------------|-3------------|-3------------|----------------|
|-2------------|-2------------|-2------------|----------------|
|-1--0-0-0-0---|-1--0-0-0-0---|-1--0-0-0-0---|------0-0-0-0---|
|-0--0-0-0-0---|-0--0-0-0-0---|-0--0-0-0-0---|------0-0-0-0---|


  BbC#bD5          EbAb5D5          BbEb5            EbBbbD5
       PM----|          PM----|          PM----|          PM----|
       |-3-|            |-3-|            |-3-|            |-3-|
  a Q  E E E E E   a Q  E E E E E   a Q  E E E E E   a Q  E E E E E
|----------------|----------------|----------------|-----------------|
|----------------|----------------|----------------|-----------------|
|----------------|-2s8------------|----------------|-2s9-------------|
|-2s5------------|-1s7------------|-2s8------------|-1s8-------------|
|-1s4--0-0-0-0---|------0-0-0-0---|-1s7--0-0-0-0---|------0-0-0-0----|
|------0-0-0-0---|------0-0-0-0---|------0-0-0-0---|------0-0-0-0----|


  BmaD5sus4/D    BmaD5sus4/D    BmaD5sus4/D    BmaD5sus4/D
     PM----|        PM----|        PM----|        PM----|
     |-3-|          |-3-|          |-3-|          |-3-|
  Q  E E E E E   Q  E E E E E   Q  E E E E E   Q  E E E Q
|--------------|--------------|--------------|-------------|
|-0------------|-0------------|-0------------|-0-----------|
|-3------------|-3------------|-3------------|-3-----------|
|-2------------|-2------------|-2------------|-2-----------|
|-1--0-0-0-0---|-1--0-0-0-0---|-1--0-0-0-0---|-1--0-0-0-0--|
|-0--0-0-0-0---|-0--0-0-0-0---|-0--0-0-0-0---|-0--0-0-0-0--|


* fadeout with feedback *
            4/4
  +H.        +W           +W           +W           +W
|----------|------------|------------|------------|--------*|
|----------|------------|------------|------------|--------*|
|----------|------------|------------|------------|--------*|
|----------|------------|------------|------------|--------*|
|-(0)------|-(0)--------|-(0)--------|-(0)--------|-(0)----*|
|-(0)------|-(0)--------|-(0)--------|-(0)--------|-(0)----*|



Duration Legend
---------------
W - whole; H - half; Q - quarter; E - 8th; S - 16th; T - 32nd; X - 64th; a - acciaccatura
+ - note tied to previous; . - note dotted; .. - note double dotted
Uncapitalized letters represent notes that are staccato (1/2 duration)
Irregular groupings are notated above the duration line
Duration letters will always appear directly above the note/fret number it represents the
duration for.  Duration letters with no fret number below them represent rests.  Multi-
bar rests are notated in the form Wxn, where n is the number of bars to rest for.  Low
melody durations appear below the staff

Tablature Legend
----------------
 h   - hammer-on
 p   - pull-off
 b   - bend
 pb  - pre-bend
 r   - bend release (if no number after the r, then release immediately)
 /\  - slide into or out of (from/to "nowhere")
 s   - legato slide
 S   - shift slide
 - natural harmonic
[n]  - artificial harmonic
n(n) - tapped harmonic
 ~   - vibrato
 tr  - trill
 T   - tap
 TP  - trem. picking
 PM  - palm muting
\n/  - tremolo bar dip; n = amount to dip
 \n  - tremolo bar down
 n/  - tremolo bar up
/n\  - tremolo bar inverted dip
 =   - hold bend; also acts as connecting device for hammers/pulls
 <> - volume swell (louder/softer)
 x   - on rhythm slash represents muted slash
 o   - on rhythm slash represents single note slash

Misc Legend
-----------
 |  - bar
||  - double bar
||o - repeat start
o|| - repeat end
*|  - double bar (ending)
 :  - bar (freetime)
 $  - Segno
 &  - Coda
Tempo markers -  = BPM(8/16=s8/s16), where s8 = swing 8ths, s16 = swing 16ths


** Generated using Power Tab Editor by Brad Larsen: The Official Power Tab Web Site
Tap to rate this tab
 
# A B C D E F G H I J K L M N O P Q R S T U V W X Y Z