Song name
# A B C D E F G H I J K L M N O P Q R S T U V W X Y Z

Johnny Cash - Tenesse Flat-top Box tab

Johnny Cash - Tenesse Flat Top Box
Tabbed By - Eric Blake
December 27, 2007


e -------------------------------------------------|
B -------------------------------------------------|
G ---0-1-1/2-2---2-1/2-2-------2-2-0---------------|   Intro
D -4-----1/2---2-2-1/2---2-2-2-------4-2-0-0-------|
A -------------------------------------------4-2-0-|
E--------------------------------------------------|

e ------------------------------------------------|
B ------------------------------------------------|
G ------------------------------------------------|
D -2-2-4-2-4-2---2-2-4-2-4-2----------------------|
A -------------0-------------0--------------------|
E ------------------------------------------------|

e -------------------------------------------------|
B -------------------------------------------------|
G ---------------------0-2-2---0---------1/2-2---2-|  Solo
D ---------0---------0-------4---4-2-2-2-1/2---2-2-|
A -0-0-2-4---0-0-2-4-------------------------------|
E -------------------------------------------------|

e ------------------------------------------------|
B ------------------------------------------------|
G -1/2-2-------2-2-0------------------------------|
D -1/2---2-2-2-------4-2-0-0-------2-2-4-2-4-2----|
A ---------------------------4-2-0-------------0--|
E ------------------------------------------------|

e ---------------------|
B ---------------------|
G ---------------------|
D -2-2-4-2-4-2---------|
A -------------0-------|
E ---------------------|
Tap to rate this tab
# A B C D E F G H I J K L M N O P Q R S T U V W X Y Z