Song name
# A B C D E F G H I J K L M N O P Q R S T U V W X Y Z

Johnny Cash - The Ways Of A Woman In Love tab

capo 1
------------------------------------|
------------------------------------|
------------------------------------|
------------------------------------|
-5-5--5--4--3--3-3--3-3-------------|
-------------------------3--5--6----|

A
You've cut out your dancin'
B7
and you never see a show
A
The girls come by to pick you up
D7		    A
and you hardly ever go
D				      A
It seems your head is in the clouds above
A		A	  E	   A
You've got the ways of a woman in love

I go by your house at night
and hope that I can see
the guy who's got you all worked up
I wish that guy was me
I don't know why it's you I'm dreaming of
You've got the ways of a woman in love

D
Many is the night
       A
I've laid awake and cried
D
Now you'll never know how much
	A		E
you've hurt my foolish pride

I recall your kisses
The times I held you tight
Now when I come to see you
you're sitting in the light
missing all the things that we dreamed of
You've got the ways of a woman in love

------------------------------------|
------------------------------------|
------------------------------------|
------------------------------------|
-5-5--5--4--3--3-3--3-3---5--3------|
--------------------------------4---|

------------------------------------|
------------------------------------|
------------------------------------|
------------------------------------|
-5-5--5--4--3--3-3--3-3-------------|
-------------------------3--5--6----|

CHORUS AGAIN

I recall your kisses
The times I held you tight
Now when I come to see you
you're sitting in the light
I'm missing all the things that we dreamed of
You've got the ways of a woman in love 2x

ending: E A
Tap to rate this tab
# A B C D E F G H I J K L M N O P Q R S T U V W X Y Z