Song name
# A B C D E F G H I J K L M N O P Q R S T U V W X Y Z

Johnny Cash - Walk The Line tab

-------------------------------------------------------------------------------
			     Walk the Line - Johnny Cash
-------------------------------------------------------------------------------
Tabbed by: Paul Dennis
Email: bluejay_50@hotmail.com

Tuning: Standard (capo 1st fret)

This is my first tab, so I was extra careful.  I'm pretty sure it's 100% correct.

INTRO
e|---------------------------------------------------------------------------|
B|---------------------------------------------------------------------------|
G|---------------------------------------------------------------------------|
D|-------------------0---0-0-------2-----------------------------------------|
A|-------0---0-0-2-4---0-----4-2-0---0-0-------2-2-------2-2-2-0-------2---2*|
E|-0-2-4---0-----------------------------4-2-0-----0-2-0---------4-2-0---0*--|

Play the last part of the intro for a while.  If you listen to the song, he
repeats the same 2 notes for a while before starting in on the next verse.
I'll use the * sign after the notes to let you know that those are the 2 that
go for a while.

I keep a close...
e|------------------------------------------------------------------------------|
B|------------------------------------------------------------------------------|
G|------------------------------------------------------------------------------|
D|----------------------------------------------2----------4---4----------------|
A|--2-2---2-----2---2-2---2-----2-------0---0------2---2-2---2-----2-------0*---|
E|0-----2---2-0---0-----2---2-0---0-2-4---0------0---0-----------0---0-2-4--0---|

     very very...
e|-------------------------------------------------------------------------------|
B|-------------------------------------------------------------------------------|
G|-------------------------------------------------------------------------------|
D|-------------------------------------0---0---2---2---------------2---------0*--|
A|0----2---2-0---0---2---2---0---0-2-4---0---0---0-----2---2---2-0---0-0-2-4---0*|
E|-0-0---0-----0---0---0---0---0---------------------0---0---0-------------------|
      night is...
e|-----------------------------------------------------------------------------|
B|-----------------------------------------------------------------------------|
G|-----------------------------------------------------------------------------|
D|0-----2---2-0---0-----2---2-0---0-----------0---0-------2---2-0---0--------2*|
A|--0-0---0-----0---0-0---0-----0---0---2---2---0---4-2-0---0-----0---0-4-2-0*-|
E|------------------------------------3---3------------------------------------|
      way to keep...
e|----------------------------------------------------------------------------------|
B|----------------------------------------------------------------------------------|
G|----------------------------------------------------------------------------------|
D|--2-----------2---2-----------2-------0---0-----2---2--------------2--------------|
A|0-----2---2-0---0-----2---2-0---0-2-4---0---0-0---0---2-0---2---2-0---0-0-------2*|
E|----0---0-----------0---0---------------------------------0---0-----------4-2-0*--|
keep a close
e|-----------------------------------------------------------------------|
B|-----------------------------------------------------------------------|
G|-----------------------------------------------------------------------|
D|------1---1-----------1---1-----------------------------1---1----------|
A|--2-2---2-----2---2-2---2-----2-------0---0-----2---2-2---2-----2---2--|
E|0-----------0---0-----------0---0-2-4---0---0-0---0-----------0---0----|


| /  slide up
| \  slide down
| h  hammer-on
| p  pull-off
| ~  vibrato
| +  harmonic
| x  Mute note
===============================================================================
Tap to rate this tab
 
# A B C D E F G H I J K L M N O P Q R S T U V W X Y Z