Song name
# A B C D E F G H I J K L M N O P Q R S T U V W X Y Z

Johnny Cash - Folsom Prison Blues tab

Folsom Prison Blues by Johnny Cash
Tab by David

e|--------------------------------------------------------------------|
B|--------------------------------------------------------------------|
G|--------------------------------------------------------------------|
D|---------3-3--------------------------------------------------------|
A|---2-2-2------2p0---------------------------------------------------|
E|------------------2b-0----------------------------------------------|

E
I hear the train a comin', it's rolling round the bend
 				    E7
And I ain't seen the sunshine since I don't know when,
      A                                             E
I'm stuck in Folsom prison, and time keeps draggin' on
           B7                                   E
but that train keeps a rollin' on down to San Anton..
E
When I was just a baby my mama told me. Son,
			E7
always be a good boy, don't ever play with guns.
       A                                    E
But I shot a man in Reno just to watch him die
        B7                                           E   
when I hear that whistle blowing I hang my head and cry..

SOLO

e|-----7-9-7-10p7------7-9-7-10--|----7-9-7-10p7-----7-9-7-10--10-9-7-|
B|-8s9-------------8s9-----------|-8s9------------8s9----------------9|
G|-------------------------------|------------------------------------|
D|-------------------------------|------------------------------------|
A|-------------------------------|------------------------------------|
E|-------------------------------|------------------------------------|

e|--------------------------------------------------------------------|
B|-----5---------5---------5---------5--------------------------------|
G|-6-6---6-----6---6-----6---6-----6---6------------------------------|
D|-7-------7-7-------7-7-------7-7-------7----------------------------|
A|--------------------------------------------------------------------|
E|--------------------------------------------------------------------|

e|--------------------------------------------------------------------|
B|-----0---------0---------0---------0--------------------------------|
G|-1-1---1-----1---1-----1---1-----1---1------------------------------|
D|-2-------2-2-------2-2-------2-2-------2----------------------------|
A|--------------------------------------------------------------------|
E|--------------------------------------------------------------------|

e|--------------------------------------------------------------------|
B|-----7---------7---------7---------7--------------------------------|
G|-8-8---8-----8---8-----8---8-----8---8------------------------------|
D|-9-------9-9-------9-9-------9-9-------9--9-9-9-9p7-----------------|
A|----------------------------------------------------9b-7------------|
E|--------------------------------------------------------------------|




E
I bet there's rich folks eating in a fancy dining car
				   E7
they're probably drinkin' coffee and smoking big cigars.
    A                                           E
Well I know I had it coming, I know I can't be free
         B7
But those people keep a movin'
			  E
And that's what tortures me...

SOLO

e|-----7-9-7-10p7------7-9-7-10--|----7-9-7-10p7-----7-9-7-10--10-9-7-|
B|-8s9-------------8s9-----------|-8s9------------8s9----------------9|
G|-------------------------------|------------------------------------|
D|-------------------------------|------------------------------------|
A|-------------------------------|------------------------------------|
E|-------------------------------|------------------------------------|

e|--------------------------------------------------------------------|
B|-----5---------5---------5---------5--------------------------------|
G|-6-6---6-----6---6-----6---6-----6---6------------------------------|
D|-7-------7-7-------7-7-------7-7-------7----------------------------|
A|--------------------------------------------------------------------|
E|--------------------------------------------------------------------|

e|--------------------------------------------------------------------|
B|-----0---------0---------0---------0--------------------------------|
G|-1-1---1-----1---1-----1---1-----1---1------------------------------|
D|-2-------2-2-------2-2-------2-2-------2----------------------------|
A|--------------------------------------------------------------------|
E|--------------------------------------------------------------------|

e|--------------------------------------------------------------------|
B|-----7---------7---------7---------7--------------------------------|
G|-8-8---8-----8---8-----8---8-----8---8------------------------------|
D|-9-------9-9-------9-9-------9-9-------9--9-9-9-9p7-----------------|
A|----------------------------------------------------9b-7------------|
E|--------------------------------------------------------------------|

E
Well if they'd free me from this prison,
E
If that railroad train was mine
E                              E7
I bet I'd move just a little further down the line
  A                                            E
Far from Folsom prison, that's where I want to stay
  B7                                            A  E
And I'd let that lonesome whistle blow my blues away...

Tap to rate this tab
 
# A B C D E F G H I J K L M N O P Q R S T U V W X Y Z