Song name
# A B C D E F G H I J K L M N O P Q R S T U V W X Y Z

Johnny Cash - Wildwood Flower tab

e|---------------------------------------------------------------------------|
B|--------1------------------------------------------------------------------|
G|-----0-2-------------------------------------------------------------------|
D|--2-3----2-3-2-0-0/2-0-----------------------------------------------------|
A|----------------------3----------------------------------------------------|
E|---------------------------------------------------------------------------|
play that part 2 times

e|----0-0--------------------------------------------------------------------|
B|---1---3-1-----------------------------------------------------------------|
G|--0-------0/2-2-3-2-0-----------0------------------------------------------|
D|---------------------0/2-0/2-0/2-2-0-0/2-0---------------------------------|
A|------------------------------------------3--------------------------------|
E|---------------------------------------------------------------------------|

after that play the first again

listen to the song for the pattern of the tabs but it just plays this over and over 
my first tab but im 100% sure this is correct
Tap to rate this tab
 
# A B C D E F G H I J K L M N O P Q R S T U V W X Y Z