Song name
# A B C D E F G H I J K L M N O P Q R S T U V W X Y Z

Johnny Cash - There You Go tab

Tabbed by Pyton.
Best sound with Capo at 1. But works without aswell<:

               E                               D            A
You're gonna break another heart you're gonna tell another lie

e|-----------------------------------|
B|-----------------------------------|
G|-----------------------------------|
D|-----------------------------------|
A|-4-4-4-4-2-4-2-4-2-4-2-4-0-2-0-2-0-|
E|-----------------------------------|

     A              D                  E        A
Well here I am and there you go, you're gone again
    A               D                  E      A
I know you're gonna be the way you've always been
D                    A               E        A
Breakin' hearts and tellin' lies is all you know
                   D             E           A
Another guy gives you the eye and there you go


A             D  
   There you go,
              A
you're gone again
                E
I should have known,
	    A
I couldn't win.
           D 
There you go,
	       A
you're by his side
              E
You're gonna break another heart,
              D            A
you're gonna tell another lie

Solo:
e|-----------------------------------|
B|-----------------------------------|
G|-----------------------------------|
D|-------------0-0-0-0-0-------------|
A|-0-4-4-4-4-4-----------2-4-0-------|
E|-----------------------------------|


e|-----------------------------------|
B|-----------------------------------|
G|-----------------------------------|
D|-------------0-0-0-0-0-------------|
A|-0-4-4-4-4-4-----------2-4-0-------|
E|-----------------------------------|


e|-----------------------------------|
B|-----------------------------------|
G|-----------------------------------|
D|-2-4-4-4-4-4-2-2-2-2-2-0-2---------|
A|---------------------------4-------|
E|-----------------------------------|


e|-----------------------------------|
B|-----------------------------------|
G|-----------------------------------|
D|-------------0-0-0-0-0-------------|
A|-0-4-4-4-4-4-----------2-4-0-------|
E|-----------------------------------|

e|-----------------------------------|
B|-----------------------------------|
G|-----------------------------------|
D|-----------------------------------|
A|-4-4-4-4-2-4-2-4-2-4-2-4-0-2-0-2-0-|
E|-----------------------------------|

    A               D              E                  A
Because I love you so I take much more than I should take
   A               D              E              A
I want you even though I know my heart is gonna break
     D               A               E      A
You built me up and for a while I'm all a-glow
                             D              E           A
Then your fickle heart sees someone else and there you go


A             D  
   There you go,
              A
you're gone again
                E
I should have known,
	    A
I couldn't win.
           D 
There you go,
	       A
you're by his side
              E
You're gonna break another heart,
              D            A
you're gonna tell another lie

e|-----------------------------------|
B|-----------------------------------|
G|-----------------------------------|
D|-----------------------------------|
A|-4-4-4-4-2-4-2-4-2-4-2-4-0-2-0-2-0-|
E|-----------------------------------|



Intro/Outro can also be played:
A E D A

And solo:
A D E A
A D E A
D A E A
A D E A
A E D A
Tap to rate this tab
# A B C D E F G H I J K L M N O P Q R S T U V W X Y Z