Song name
# A B C D E F G H I J K L M N O P Q R S T U V W X Y Z

Johnny Cash - Heart Of Gold tab

-------------------------------------------------------------------------------
			     Heart of Gold - Johnny Cash (Neil Young)
-------------------------------------------------------------------------------
Tabbed by:Stroem

Tuning:Standard

I believe its John Frusciante playing the solos in this song.

Time: 0.55-1.20
e|--------------------------------------------------------------------------|
B|-15b-13-11--13-11--13b13b-11-10-------------------------------------------|
G|---------------------------------12-10h12p10---10-------------------------|
D|------------------------------------------10h12--12----10-8-10-8-10b-10-8-|
A|--------------------------------------------------------------------------|
E|--------------------------------------------------------------------------|

e|--------------------------------------------------------------------------|
B|---------13b13b-11-13-13-13-11-10-13-11-----------------------------------|
G|------------------------------------------10-12--14-14-14br-12-10-10-14-12|
D|7-10-8--------------------------------------------------------------------|
A|--------------------------------------------------------------------------|
E|--------------------------------------------------------------------------|


Tap to rate this tab
# A B C D E F G H I J K L M N O P Q R S T U V W X Y Z