Song name
# A B C D E F G H I J K L M N O P Q R S T U V W X Y Z

Johnny Cash - In The Jailhouse Now tab

this is my first tab.i know its not completely right when it comes to the verse 
but i would appreciate some suggestions 


In the Jailhouse Now by Johnny Cash      pm= palm mute
                                          ~= let ring
intro
e|-----------------| 
B|-----------------| 
G|-----------------|
D|-----------------|
A|-4-8-8-8-8-8-7-6-|
E|-----------------|

verse
e|-------------------------------------------------------------------------|
B|-------------------------------------------------------------------------|
G|-------------------------------------------------------------------------|
D|---6----------6--------6-------6-------6-------6-------6--------6--------|
A|-4----------4--------4-------4-------4-------4-------4--------4----------|
E|-----4-6-6------4--------4-------4-------4-------4--------4-------4------|
  pm.......................................................................
                                      
e|-------------------------------------------------------------------------|
B|--------------------------------------------------------------------1---1|
G|---6-------6-------6-------6-------6--------6-------3--------3----1------|
D|-4-------4-------4-------4-------4--------4-------1--------1----------1--|
A|-----4-------4-------4-------4-------4--------4--------1-------1---------|
E|-------------------------------------------------------------------------|
  pm.......................................................................

chorus
(the chorus is a variation of the verse)

solo
e|-------------------------------------------------------------------------|
B|-------------------------------------------------------------------------|
G|-6-8-6-----------6~--6-6-8-6---------------------------------------------|
D|-------8-7-8-7-8--------------6-8-6-8-6-----6-8-9-10-10-10-8-6-6---------|
A|----------------------------------------8~-----------------------9-8-6---|
E|-------------------------------------------------------------------------|
 
tag                                                                    
e|-----|
B|-----|
G|-----|
D|-----|
A|---4-|
E|-4---|

|intro
|verse
|chorus
|solo
|verse
|chorus
|solo
|verse
|chorus
|tag
Tap to rate this tab
# A B C D E F G H I J K L M N O P Q R S T U V W X Y Z