Song name
# A B C D E F G H I J K L M N O P Q R S T U V W X Y Z

Johnny Cash - Tennessee Flat Top Box tab

okay, so this is just the fun  parts haha..or so i think :D i'm 77% right i think :\

e]----------------------------------------------------------]
B]----------------------------------------------------------]
G]-0-1-2-3---3--3-1-0---------------------------------------]
D]--------3---3------3-1--0---------------------------------]
A]--------------------------3-1--1--1--1------3--3--3--3--3-]
E]------------------------------1--1--1--1--1--1--1--1--1---]


|----------------------------------|
|----------------------------------|
|----------------------------------|
|---------0----------0----------0--|
|-0-0-2-4----0-0-2-4----0-0-2-4----|
|----------------------------------|

|---------------------------------------|                                  
|------------------2---2----------------|
|---2-2----------1/2-1/2-2-2-2-0--------|
|-4-----4-5-4-2------------------4-2-0--|
|---------------------------------------|
|---------------------------------------|

|---------------------------------|
|---------------------------------|
|---------------------------------|
|---------0----------0---------0--                                          
|-0-0-2-4----0-0-2-4---0-0-2-4----|
|---------------------------------|

|----------------------------------------------------------------|
|-----------------2---2------------------------------------------|
|---2-2---------1/2-1/2-2-2-2-0----------------------------------|
|-4-----4-5-4-2-----------------4-2-0---------2h4p2h4p2----------|
|-------------------------------------4-2-0-------------0--------|
|----------------------------------------------------------------|
Tap to rate this tab
# A B C D E F G H I J K L M N O P Q R S T U V W X Y Z