Song name
# A B C D E F G H I J K L M N O P Q R S T U V W X Y Z

Johnny Cash - Tennessee Flat-top Box tab

                                  Intro
e|-------------------------------------------------------------------------|
B|-------------------------------------------------------------------------|
G|-0-1-2-3-3-3-3-----3-3-3-3------3--1--0----------------------------------|
D|---------------3-3---------3-3-----------3--1------0---------------------|
A|-----------------------------------------------1-1----3--1---------------|
E|-------------------------------------------------------------------------|
                                  Verse
e|-------------------------------------------------------------------------|
B|-------------------------------------------------------------------------|
G|-------------------------------------------------------------------------|
D|-5-3-5-3-----5-3-5-3-----5-3-5-3-----5-3-5-3-----------------------------|
A|----------------------------------------------------------3-33------3----|
E|---------6-6---------6-6---------6-6---------6-6--6-5-3-1-------1-1------|

e|-------------------------------------------------------------------------|
B|-------------------------------------------------------------------------|
G|-------------------------------------------------------------------------|
D|-3-333-1--3-333-1--3--1--0-------3-33------3-----------------------------|
A|----------------------------3--1-------1-1-----3-33-----3----------------|
E|---------------------------------------------1------1-1------------------|
                                   |-Chorus
e|---------------------------------|---------------------------------------|
B|---------------------------------|---------------------------------------|
G|---------------------------------|---------------------------------------|
D|-3-333-1--3-333-1--3--1--0-------|-------0-1-------0-1-------0-1-1-------|
A|----------------------------3--1-|-1-1-3-----1-1-3-----1-1-3-------------|
E|---------------------------------|---------------------------------------|

e|-------------------------------------------------------------------------|
B|-------------------------------------------------------------------------|
G|-3-3-0-1-0---3333-----3333------3-1-0------------------------------------|
D|-----------3------3-3------3-3--------3-1------0-------------------------|
A|-------------------------------------------1-1---3-1---------------------|
E|-------------------------------------------------------------------------|
                                Verse
                                Chorus
                                Verse
                                Chorus
Tap to rate this tab
# A B C D E F G H I J K L M N O P Q R S T U V W X Y Z