Song name
# A B C D E F G H I J K L M N O P Q R S T U V W X Y Z

Johnny Cash - Peace In The Valley tab

Intro
e----------------------------------------|
B----------8-6-------------------8p6-6---|
G-3-5-7--------7p5---3-5p3-2s3---------7-|
D----------------------------------------|
A----------------------------------------|
E----------------------------------------|

         A#                    Eb               A#
Well I'm tired and so weary but I must go along

                                       F7
Till the Lord comes and calls calls me away oh yes

         A#                    Eb                      A#
Well the morning's so bright and the lamb is the light

                          F7           A#
And the night night is as black as the sea oh yes

               Eb                      A#
(There will be peace in the valley for me some day)

                                      F7
There will be peace in the valley for me dear Lord I pray

                A#                A#7          Eb
(There'll be no sadness no sorrow no trouble I see)

              A#           F7         A#
There will be peace in the valley for me (for me)

Additional Lyrics:

Well the bear will be gentle and the wolf will be tame
And the lion shall lay down with the lamb oh yes
And the beast from the wild will be lead by a child
And I'll be changed changed from this creature that I am oh yes
(There will be peace in the valley...

Chords Used:
  A#  Eb   F7  A#7
e-6---6----8---6-|
B-6---8---10---6-|
G-7---8----8---7-|
D-8---8---10---6-|
A-8---6----8---8-|
E-6---6----8---6-|
Tap to rate this tab
 
# A B C D E F G H I J K L M N O P Q R S T U V W X Y Z